E-Chords
Bee Gees

Stayin' Alive(Chords)

Bee Gees

Watch the video lesson
Key: Fm
Intro: 

Fm7                                             Bb 
----------------------------------------------------|E
----------------------------------------------------|B
--------1-------------------------------------1--3--|G
-1--3-------1----------1-------1--------1--3--------|D
----------------3--1-3----1-3-----1--3--------------|A
----------------------------------------------------|E

Fm7
----------------------------------------------------|E
----------------------------------------------------|B
--------1-------------------------------------1-----|G
-1--3-------1----------1-------1--------1--3--------|D
----------------3--1-3----1-3-----1--3--------------|A
----------------------------------------------------|E
Fm7 Well you can tell by the way I use my walk, Eb Fm7 I'm a woman`s man, no time to talk. Eb Fm7 Music loud and women warm, I've been kicked around since I was born. Bb And now it's alright, it's ok, you may look the other way. G# Bb We can try to understand the New York Times' effect on man.
Fm7 Whether you're a brother or whether you're a mother, you're stayin' alive, stayin' alive. Feel the city breakin' and everybody shakin', and we're stayin' alive, stayin' alive. Fm7 Ah, ha, ha, ha, stayin' alive, stayin' alive, Fm7 Eb Fm7 Cm Fm7 ah, ha, ha, ha, stayin' ali......ve.
Fm7 Eb Fm7 Well now, I get low and I get high, and If I can't get either I really try. Fm7 Got the wings of heaven on my shoes, Eb Fm7 I'm a dancin' man and I just can't lose. Bb You know it's alright, it's ok, I live to see another day. G# Bb We can try to understand the New York Times' effect on man.
Fm7 Whether you're a brother or whether you're a mother, you're stayin' alive, stayin' alive. Feel the city breakin' and everybody shakin', and we're stayin' alive, stayin' alive. Fm7 Ah, ha, ha, ha, stayin' alive, stayin' alive, Fm7 Eb Fm7 Cm Fm7 ah, ha, ha, ha, stayin' ali.........ve.
G# Bb Fm7 Life going nowhere, somebody help me, somebody help me, yeah Bb Fm7 Life going nowhere, somebody help me, yeah, stayin'alive. Fm7 Well you can tell by the way I use my walk, Eb Fm7 I'm a woman`s man, no time to talk. Eb Fm7 Music loud and women warm, I've been kicked around since I was born. Bb And now it's alright, it's ok, you may look the other way. G# Bb We can try to understand the New York Times' effect on man.
Fm7 Whether you're a brother or whether you're a mother, you're stayin' alive, stayin' alive. Feel the city breakin' and everybody shakin', and we're stayin' alive, stayin' alive. Fm7 Ah, ha, ha, ha, stayin' alive, stayin' alive, Fm7 Eb Fm7 Cm Fm7 ah, ha, ha, ha, stayin' ali......ve.
G# Bb Fm7 Life going nowhere, somebody help me, somebody help me, yeah Bb Fm7 Life going nowhere, somebody help me, yeah, stayin'ali...................ve.

roll up this ad to continue

share this page

See Also: