E-Chords
Beat Crusaders

Situation(Chords)

Beat Crusaders

roll up this ad to continue

Key: G
(intro) G F#m Em7 D C Bm7 Am7 D 

E|---------------7-10-7----------|---------------7-10-7-----| 
B|-8-8--10-8-10---------10-8--10-|-8-8--10-8-10---------10--| 
G|-------------------------------|--------------------------| 
D|-------------------------------|--------------------------| 
A|-------------------------------|--------------------------| 
E|-------------------------------|--------------------------|
G This is the problem of my own G Am7 D She?s never loved me all along C Cm7 But I want her, need her, Bm7 Em7 Love her more than now Am7 D That?s all I?ve got G F#m Em7 D C Bm7 Am7 D The situation G Show me the way to prove my love G Am7 D She wants to be just on her own C Cm7 But I want her, need her, Bm7 Em7 Love her more than now Am7 Bm7 Save me please, girl! C D This confusion G F#m Em7 D _ ?A broken heart will make you learn and learn? | C Bm7 Am7 D |(2x) ?A broken heart will make you turn around? _| C If she?s gotta believe me Cm7 Bm7 Em7 My heart?s in sky high, wish she comes together Am7 With me D ?Hold on!? Am7 Hold on, with me D ?Hold on!? G F#m Em7 D C Bm7 Am7 D To the situation (intro) G This is the problem of my own G Am7 D She?s never loved me all along C Cm7 But I want her, need her, Bm7 Em7 Love her more than now Am7 Bm7 That?s all I?ve got C D The situation G F#m Em7 D _ ?A broken heart will make you learn and learn? | C Bm7 Am7 D |(2 vezes) ?A broken heart will make you turn around? _| C If she?s gotta believe me Cm7 Bm7 Em7 My heart?s in sky high, wish she comes together Am7 With me D ?Hold on!? Am7 Hold on, with me D ?Hold on!? Em7 (D C D D#m Em7 D C D D#m) To the situation
E|---------------7-------------|---------------7-----------| 
B|-5-5--7-5-7--8---8-7-5--7-5--|-5-5--7-5-7--8---8-7-5--7--| 
G|-----------------------------|---------------------------| 
D|-----------------------------|---------------------------| 
A|-----------------------------|---------------------------| 
E|-----------------------------|---------------------------| 

E|---------------7-10-7----------|---------------7-10-7---------| 
B|-8-8--10-8-10---------10-8--10-|-8-8--10-8-10---------10-8-10-| 
G|-------------------------------|------------------------------| 
D|-------------------------------|------------------------------| 
A|-------------------------------|------------------------------| 
E|-------------------------------|------------------------------| 
C When she?s gotta believe me Cm7 Bm Em7 There?s something precious spread inside forever Am7 With me Bm7 ?Hold on!? C Hold on, with me D ?Hold on!? G To the situation G F#m Em7 D _ ?A broken heart will make you learn and learn? | C Bm7 Am7 D |(2 vezes) ?A broken heart will make you turn around? _| C _ If she?s gotta believe me | Cm7 Bm7 Em7 | My heart?s in sky high, wish she comes together | Am7 | With me | D | (2 VEZES) ?Hold on!? | Am7 | Hold on, with me | D | ?Hold on!? | G | To the situation _| C Cm7 And I want her, need her, Bm7 Em7 Love her more than now Am7 D That?s all I?ve got G F#m Em7 D C Bm7 Am7 D The situation D C D D#m Em7 D C D D#m G ...situation
share this page

See Also: