E-Chords
Beady Eye

World Outside My Room(Chords)

Beady Eye

roll up this ad to continue

Key: E
Introduction:  E (x4) 

VERSE 1: 
E 
I wake up smiling in my little Eden 
                    A 
Pay no heed to the world outside 
C               E 
Take my medication and hide 

VERSE 2: 
E 
Whos been smoking cherry cola? 
                      A 
Somebody trying to live the dream 
C                 E 
I rattle as I reach to dust the screen 

A Out the door it might be snowing E In my world its always June C A E I dont believe in the world outside my room C A E I dont believe in the world outside my room A Television and dusty windows E Fill my head with a happy tune C A E I dont believe in the world outside my room C A E I dont believe in the world outside my room
FILL: 
e|---10-----13-------------------| 
B|---10-----13-------6----5------| 
G|---11-----14-------5----4------| 
D|-------------------------------| 
A|-------------------------------| 
E|-------------------------------| 

E (x2) 

e|---10-----13-------------------| 
B|---10-----13-------6----5------| 
G|---11-----14-------5----4------| 
D|-------------------------------| 
A|-------------------------------| 
E|-------------------------------| 
E (x4) VERSE 3: E Life in here is a different tempo A Virtually comatosed C E Sitting with the one I love the most VERSE 4: E A sleeping dog deserves to lie A She dont feel like a walk today C E She just wants to sleep and play
A Out the door it might be snowing E In my world its always June C A E I dont believe in the world outside my room A Television and dusty windows E Fill my head with a happy tune C A E I dont believe in the world outside my room C A E I dont believe in the world outside my room
FILL: 
e|---10-----13-------------------| 
B|---10-----13-------6----5------| 
G|---11-----14-------5----4------| 
D|-------------------------------| 
A|-------------------------------| 
E|-------------------------------| 

E (x2) 

e|---10-----13-------------------| 
B|---10-----13-------6----5------| 
G|---11-----14-------5----4------| 
D|-------------------------------| 
A|-------------------------------| 
E|-------------------------------| 
INSTRUMENTAL: :A/E/C/A/E: E (x2) VERSE 5: E Tell me something I know already A No surprises for me today C E Im not ready, Ive lost my way VERSE 6: E Someday soon Ill get off my sofa A Stop dreaming bout what might have been C E Until then Ill stay serene
A Out the door it might be snowing E In my world its always June C A E I dont believe in the world outside my room A Television and dusty windows E Fill my head with a happy tune C A E I dont believe in the world outside my room C A E I dont believe in the world outside my room C A E I dont believe in the world outside my room
OUTRO: E Outside my room E Outside my room E Outside my room E Outside my room E Outside my room E Outside my room E Outside my room
share this page

See Also: