E-Chords
Beady Eye

The Morning Son(Chords)

Beady Eye

roll up this ad to continue

Key: E
Intro:  E  Emaj7  A  Am  E  B  Am  E 

E 
You'll never know 
Emaj7 
Unless you try 
A 
You're blinded by what 
Am 
You idolize 

E 
I stand alone 
B 
Nobody knows 
Am          E 
The morning Son has rose 

E 
He's in my mind 
Emaj7 
He's in my soul 
A 
He's even in my 
Am 
Rock n' Roll 

E 
I stand alone 
B 
Nobody knows 
Am          E 
The Morning Son has rose 

Riff:  E  Emaj7  A  Am  E  B  Am  E 

E|---------------------------------------------------------- 
A|-2-4-4/\7-4-4--2-4-4/\7-4-2------------------------------- 
D|----------------------------2-4-4/\6-4-4--2-4-4h5-4-2-2h4- 
G|---------------------------------------------------------- 
B|---------------------------------------------------------- 
E|---------------------------------------------------------- 
E|---------------------------------------------------------- 

E|------------------------------------- 
A|-2-4-4/\7-4-4--2-4-4/\6-4-2---3-2---- 
D|----------------------------2-----2-- 
G|------------------------------------- 
B|------------------------------------- 
E|------------------------------------- 
E|------------------------------------- 
E I'm here to show Emaj7 I'll help you out A It takes a lifetime Am I'v worked it out E I stand alone B Nobody knows Am E The Morning Son has rose Am E The morning Son has rose Am E The morning Son has rose Am E The morning Son has rose Am E The morning Son has rose Solo: E Emaj7 A Am E B Am E o slide deve ser usado em cima do traste e não da casa.
E|----------------------------------------------------------------- 
A|-9-7-5-7-9-12-9---9-7-5-7-8-7-5---9-7-5-7-9-12-9---9-7-5-7-9-7-5- 
D|----------------------------------------------------------------- 
G|----------------------------------------------------------------- 
B|----------------------------------------------------------------- 
E|----------------------------------------------------------------- 
E|----------------------------------------------------------------- 
E So let it be Emaj7 And give it time A You go your way Am And i'll go mine E I stand alone B Nobody Knows Am E The Morning Son has rose F# We'll never know Emaj7 Unless we try A We're blinded by what Am We idolize E We stand alone B Nobody knows Am E The Morning Son has rose Am E The Morning Son has rose...
share this page

See Also: