E-Chords
Beady Eye

Standing On The Edge Of The Noise(Chords)

Beady Eye

roll up this ad to continue

Key: G
Intro: G  C  G  C  G  C  G  C 

G 
Hold on tight 
Goin' out the station 
Rollin' around in anticipation 
A 
Saying goodbyes to the ones we feel 
             D7 
And we're dead 

G 
Your mother don't know what your father's missing 
Your brother don't know cause he ain't been listen 
A 
Gotta design for killing time 
            D7 
And it's dead! 

(Riff 1) 
G 
Get you, you got me 
C                                    G 
I'm standing on the edge of the noise 
 
G 
Get me, I got you 
C                                   G 
I'm standing on the edge of the noise 
F G   F G 
Oh oh, yeah 

G 
So many people, so little time 
So many reasons, so little rhyme 
A                                                     D7 
So let me look at you, some say don't seek, don't find 


G 
Get you, you got me 
C                                    G 
I'm standing on the edge of the noise 
(Riff 1) 
G 
Get me, I got you 
C                                    G 
I'm standing on the edge of the noise 
F  G     F G 
Oh oh, yeah 
 
e|-------------------------------------------------------------------| 
B|-----------6------6------6-----------------------------------------| 
G|-------5b7----5b7----5b7-------------------------------------------| 
D|-------------------------------------------------------------------| 
A|-------------------------------------------------------------------| 
E|-------------------------------------------------------------------| 
G Hold on tight Goin out the station Rollin' around in anticipation A Saying goodbyes to the ones we feel D7 And we're dead (Riff 1) G Get you, you got me C G I'm standing on the edge of the noise (Riff 1) G Get me, I got you C G I'm standing on the edge of the noise F G Oh oh, yeah Oh oh, yeah G Standing on the edge of the noise (x5) ( D7 ) ( G )
Riff 1: 
e|-----------------------------------| 
B|-----------------------------------| 
G|----12-10----------12-10-----------| 
D|----------12-10-8--------12-10-8---| 
A|-----------------------------------| 
E|-----------------------------------|
share this page

See Also: