E-Chords
Banda Malakh

Te Louvo(Chords)

Banda Malakh

roll up this ad to continue

Key: G#m
E|---------------------------------------------------| 
B|---------------------------------------------------| 
G|---------------------------------------------------| 
D|----------------------------------3-3--------4-4---| 
A|-------2-2----------2-2-3-3-4-4--4---4-4----6---6-6| 
E|-4----4----4-4----4--------------------------------| 
G#m C#m D#m Param param patim pam pampam, param pam pam param patim pam pampam pampampam. (2x) REFRÃO: G#m C#m D#m Te louvo e Te bendigo Deus, pois Tu és bom! G#m C#m D#m Te louvo e Te bendigo Deus, pois Tua palavra é de vida eterna!
 
E|---------------------------------------------------| 
B|---------------------------------------------------| 
G|---------------------------------------------------| 
D|---------------------------------------------------| 
A|-------4--4h6-4------------------------------------| 
E|----4-7---------4--2-2h4---------------------------| 
G#m C#m D#m Tanto procurei, mas nada encontrei G#m C#m D#m como teu amor. só ele me preencheu por completo G#m C#m D#m Tanto te procurei em outro lugar meu deus uô ô. G#m C#m D#m Te louvo e te bendigo entao desde q te encontrei (REFRÃO) G#m C#m D#m Ó vem, vem! G#m C#m Vem sobre mim, vem, vem sobre mim assim, D#m G#m tirar todo mal e mostrar tua vontade em mim. C#m D#m Mostra-me que a dor serve pra crescer. G#m C#m D#m Estar contigo, poder ceiar em tua casa. G#m C#m D#m Por isso Te louvo Deus! Te louvo Deus e vivo para Ti! (REFRÃO) (SOLO) G#m C#m D#m Um dia estarei Contigo, vamos ceiar e eu vou Te louvar, G#m C#m D#m Te bendizer pessoalmente meu Deus, pessoalmente G#m Te louvo meu Deus. C#m D#m Te louvo meu Deus (REFRÃO) G#m C#m D#m Param param patim pam pampam, param pam pam param patim pam pampam pampampam.
share this page

See Also: