E-Chords
Banda Lírios do Vale

Meu Anjo Protetor(Chords)

Banda Lírios do Vale

roll up this ad to continue

Key: G
Intro G  D  C  D 


E|------------------------------------------------------| 
B|-----------3------------3----------3------------------| 
G|--0--2--0-------0--2/4-----2/4--2-----0--0--1/2-------| 
D|------------------------------------------------------| 
A|------------------------------------------------------| 
E|------------------------------------------------------| 

E|------------------------------------------------------| 
B|-----------3------------3----------3------------------| 
G|--0--2--0-------0--2/4-----2/4--2-----0--0--1/2--2--0-| 
D|------------------------------------------------------| 
A|------------------------------------------------------| 
E|------------------------------------------------------| 
G D É a família que escolhemos ter C D O meu ombro mais leal G D A oração onde devo recorrer C D Um anjo que enfrenta o meu mau Am7 C Um presente vindo de Deus Am7 D O mais lindo que ele me deu G D Pra me amar C D Mesmo onde eu for G D Vou me lembrar C D Meu anjo protetor G D O que nos torna verdadeiros amigos C D Professamos a mesma fé G D Braços dados, sonhos construídos C D Me ajuda a ficar de pé Am7 C Um presente vindo de Deus Am7 D O mais lindo que ele me deu G D Pra me amar C D Mesmo onde eu for G D Vou me lembrar C D Meu anjo protetor Em Bm7 Quero ser as tuas lágrimas C D Quando tiver ferido Em Bm7 Quero que sinta nos meus olhos C Que sempre estarei Que sempre estarei Que sempre estarei D Contigo G D Pra me amar C D Mesmo onde eu for G D Vou me lembrar C D Meu anjo protetor G D Pra me amar C D Mesmo onde eu for G D Vou me lembrar C D Meu anjo protetor Final G D C D G D C D G
share this page

See Also: