E-Chords
Banda Cascavél

Entre Eu e Ela(Chords)

Banda Cascavél

Key: C
              C                  Am 
e|---------13-12--12~-----------------------------| 
B|----13-15-----15------13-15-15-13-12-13~--------| 
G|--12----------------15--------------------------| 
D|------------------------------------------------| 
A|------------------------------------------------| 
E|------------------------------------------------| 
           F                  G  
e|--15-15-15-13-13-13-13-12-----------------------| 
B|-------------------------13-15------------------| 
G|------------------------------------------------| 
D|------------------------------------------------| 
A|------------------------------------------------| 
E|------------------------------------------------| 
              C                   Am 
e|---------13-12--12~-----------------------------| 
B|----13-15-----15------13-15-15-13-12-13~--------| 
G|--12----------------15--------------------------| 
D|------------------------------------------------| 
A|------------------------------------------------| 
E|------------------------------------------------| 
           F                 G   
e|--15-15-15-13-13-13-13-12-----------------------| 
B|-------------------------13-15------------------| 
G|--------------------------------12-15-12--------| 
D|------------------------------------------------| 
A|------------------------------------------------| 
E|------------------------------------------------| 
             C         F        C 
e|------------------------------------------------| 
B|--18-17-15-13-----------------------------------| 
G|--------------12----10---9----------------------| 
D|-----------------14--------12-10~---------------| 
A|------------------------------------------------| 
E|------------------------------------------------| 
C Am A canção que eu estou cantando é pra ela F G Numa forma de mostra o amor do meu jeito Em Am E assim eu vou fala pro mundo de uma vez por todas Que eu amo você F G O coração está batendo forte em meu peito C Am Derrepente, você entrou na minha vida F G Quando dei por mim já estava apaixonado Em Am Eu adoro quando liga é gostoso ouvi a sua linda voz F G Mais gostoso é ter você aqui do meu lado
2x C Am Cada pedaço em você, eu acho lindo de mais. F G Teu olhar me fala, coisa tão belas. C Am O que eu sinto por você cada dia aumenta mais F G C G O amor está entre eu e ela
         C                   Am 
e|-------------------------------------------------| 
B|-15/17-15-13-12-13~--15/17-15-13-12--------------| 
G|-----------------------------------12~-----------| 
D|-------------------------------------------------| 
A|-------------------------------------------------| 
E|-------------------------------------------------| 
	   F                         G 
e|------------10-12-13-12-10~---------12-13-15-13-20~--| 
B|----10-12-13----------------12-13-15-----------------| 
G|--12-------------------------------------------------| 
D|-----------------------------------------------------| 
A|-----------------------------------------------------| 
E|-----------------------------------------------------| 
C Am Derrepente, você entrou na minha vida F G Quando dei por mim já estava apaixonado Em Am Eu adoro quando liga é gostoso ouvi a sua linda voz F G Mais gostoso é ter você aqui do meu lado
4x C Am Cada pedaço em você, eu acho lindo de mais. F G Teu olhar me fala, coisa tão belas. C Am O que eu sinto por você cada dia aumenta mais F G C G O amor está entre eu e ela
Eu dedico essa canção que eu tirei para minha namora Vânia... [email protected] Serraria - PB

roll up this ad to continue

share this page

See Also: