E-Chords
Ballyhoo

Battle Cry(Chords)

Ballyhoo

roll up this ad to continue

Key: Fm
INTRO 

  Fm            Bbm         Fm          Bbm 
e|---------------------------------------------------| 
B|---------------------------------------------------| 
G|---------------------------------------------------| 
D|--------------------3-----------------------3------| 
A|--------3---4-1---4-----4-------3---4-1---4--------| 
E|--1---4-------------------1---4--------------------| 
VERSE Fm Bbm Ooo, I'm under pressure I've been locked in here too long, Fm Gotta make my fantasies real now. Bbm Sometimes I wonder if I'm lookin' at a dead end job, Fm Just spinnin' my wheels, just spinnin' my wheels. I know I'm gonna be okay, Bbm Fm Cause everyone's allowed to feel bad on a nice day. Bbm Remember why you're here, remember who you are, Ab Never ever lose the reason what you're doing this for. Eb I've been saying this for a long time, F5 Don't let life pass you by. Db5 Ab5 Eb5 Ab Dream a little dream and take it to the world. Eb Maybe I should take my own advice, F5 And not get left behind. Db5 Ab5 Eb5 Hands into the sky and scream your battle cry.
  Fm            Bbm         Fm          Bbm 
e|---------------------------------------------------| 
B|---------------------------------------------------| 
G|---------------------------------------------------| 
D|--------------------3-----------------------3------| 
A|--------3---4-1---4-----4-------3---4-1---4--------| 
E|--1---4-------------------1---4--------------------| 
VERSE Fm Bbm Oooo I'm talking don't change the station yet, Fm Need time to get this into your head. Bbm Gonna make mistakes along the way, Fm You think you're spinnin' your wheels, just spinnin' your wheels. I promise that you'll be okay, Bbm Fm Cause no-one wants to see you feelin' bad on a nice day. You know why you're here, Bbm You're gonna be a star, Ab Gonna show 'em what it takes to really make it this far. Chorus Eb I've been saying this for a long time, F5 Don't let life pass you by. Db5 Ab5 Eb5 Ab Dream a little dream and take it to the world. Eb Maybe I should take my own advice, F5 And not get left behind. Db5 Ab5 Eb5 Hands into the sky and scream your battle cry.
SOLO 


e|-------------------------------------------------------------------------------------| 
B|-------------------------------------------------------------------------------------| 
G|--10-10-8-8---------------------------------------8-8-10-10-8-10br--10-8-10br--10-8--| 
D|------------11-11-10-10-8-8-------8-8-10-10-11-11------------------------------------| 
A|----------------------------11-11----------------------------------------------------| 
E|-------------------------------------------------------------------------------------| 

e|--8---8---8-----8---8---8----------------------9----9-11-11b-11b-11b\-------| 
B|--11b-11b-11b---11b-11b-11b--11-11-9-11~--9h11---11-------------------------| 
G|----------------------------------------------------------------------------| 
D|----------------------------------------------------------------------------| 
A|----------------------------------------------------------------------------| 
E|-----------------------------------------------------------------------13\--| 

e|-------------------------------------------------------------------| 
B|-------------------------------------------------------------------| 
G|--------------------------------------------------3-3--------------| 
D|------------------3-3---------------------3-3-4-4-----4-4-3-3------| 
A|----------3-3-4-4-----4-4-3-3-----1-1-4-4---------------------4-4--| 
E|--1-1-4-4---------------------4-4----------------------------------| 

e|-----------------------------| 
B|-----------------------------| 
G|--5-5--5-5-5-6-6--6-6--------| 
D|--5-5--5-5-5-6-6--6-6--------| 
A|--3-3--3-5-5-4-4--4-4--------| 
E|------------------------13\--| 

e|-------------------------------------------------------------------| 
B|-------------------------------------------------------------------| 
G|--------------------------------------------------3-3--------------| 
D|------------------3-3---------------------3-3-4-4-----4-4-3-3------| 
A|----------3-3-4-4-----4-4-3-3-----1-1-4-4---------------------4-4--| 
E|--1-1-4-4---------------------4-4----------------------------------| 

e|----------------------------------------------------------------------| 
B|----------------------------------------------------------------------| 
G|--5-5--5-5-5-6-6--6-6-6-5-5--5-5-5-6-6--6-6-6-5-5--5-5-5--6-6--6-6-6--| 
D|--5-5--5-5-5-6-6--6-6-6-5-5--5-5-5-6-6--6-6-6-5-5--5-5-5--6-6--6-6-6--| 
A|--3-3--3-5-5-4-4--4-4-4-3-3--3-3-3-4-4--4-4-4-3-3--3-3-3--4-4--4-4-4--| 
E|----------------------------------------------------------------------| 

e|-----------------------------------| 
B|-----------------------------------| 
G|--8-8-8-8-8-8-8-8-9-9-9-9-9-9-9-9--| 
D|--8-8-8-8-8-8-8-8-9-9-9-9-9-9-9-9--| 
A|--6-6-6-6-6-6-6-6-7-7-7-7-7-7-7-7--| 
E|-----------------------------------| 
Ab Eb I've been saying this for a long time, F5 Don't let life pass you by. Db5 Ab5 Eb5 Ab Dream a little dream and take it to the world. Eb Maybe I should take my own advice, F5 And not get left behind. Db5 Ab5 Eb5 Hands into the sky and scream your battle cry.
OUTRO 


e|-------------------------------------------------------------------| 
B|-------------------------------------------------------------------| 
G|--------------------------------------------------3-3--------------| 
D|------------------3-3---------------------3-3-4-4-----4-4-3-3------| 
A|----------3-3-4-4-----4-4-3-3-----1-1-4-4---------------------4-4--| 
E|--1-1-4-4---------------------4-4----------------------------------| 

e|-------------------------------------------------------------------| 
B|-------------------------------------------------------------------| 
G|--------------------------------------------------3-3--------------| 
D|------------------3-3---------------------3-3-4-4-----4-4-3-3------| 
A|----------3-3-4-4-----4-4-3-3-----1-1-4-4---------------------4-4--| 
E|--1-1-4-4---------------------4-4----------------------------------| 

e|---------------------------------------------------------------------| 
B|---------------------------------------------------------------------| 
G|--5-5--5-5-5-6-6--6-6-6-5-5--5-5-5-6-6--6-6-6-5-5--5-5-5-6-6--6-6-6--| 
D|--5-5--5-5-5-6-6--6-6-6-5-5--5-5-5-6-6--6-6-6-5-5--5-5-5-6-6--6-6-6--| 
A|--3-3--3-5-5-4-4--4-4-4-3-3--3-3-3-4-4--4-4-4-3-3--3-3-3-4-4--4-4-4--| 
E|---------------------------------------------------------------------| 

e|------------------------------------------| 
B|------------------------------------------| 
G|--8-8-8-8-8-8-8-8-9-9-9-9-9-9-9-9---------| 
D|--8-8-8-8-8-8-8-8-9-9-9-9-9-9-9-9-3-------| 
A|--6-6-6-6-6-6-6-6-7-7-7-7-7-7-7-7-3-------| 
E|----------------------------------1-------| 
************************************ | / slide up | \ slide down | h hammer-on | p pull-off | ~ vibrato | + harmonic | x Mute note | b Bend | pb Pre-bend | br Bend release | pbr Pre-bend release | brb Bend release bend ************************************
share this page

See Also: