E-Chords
Bad Bunny

Volví (part. Aventura)(Chords)

Bad Bunny

roll up this ad to continue

Key: Ab
Intro: Am  G  C  F 

   Am        G         C          F 
E|---------------------0----------------------| 
B|-1------1--0--------------------------------| 
G|------2------0---0--------0-----2------2----| 
D|----2----------0--------2---2--------3------| 
A|-0-------------------3-------------3--------| 
E|-----------3--------------------1-----------| 

Verse 1:

Am G C F Dime por qué le tiras piedras a la luna Am G C F Tan ilógico como extraerme de tu piel Am G C F Después de dios, soy tu todo, mujer Am G C ¿qué tal te está yendo con él?
   Am                G  
E|--------------------------------------------| 
B|---------10-13-12-----------10--------------| 
G|-------9-----------------12----12-10-9-9-10-| 
D|----10----------------12--------------------| 
A|-12----------------10-----------------------| 
E|--------------------------------------------| 

   Dm             Am 
E|-13-12-10h12--------------------------------| 
B|------------------10-13-10---10-13-10-------| 
G|----------------9----------9----------------| 
D|--------------------------------------------| 
A|--------------------------------------------| 
E|--------------------------------------------| 

   Am                G  
E|--------------------------------------------| 
B|---------10-13-12-----------10--------------| 
G|-------9-----------------12----12-10-9-10---| 
D|----10----------------12--------------------| 
A|-------------------10-----------------------| 
E|--------------------------------------------| 

   Dm              Am 
E|-13-12-10/12--------------------------------| 
B|-15-13-12/13--------13-10-13----13-10-13----| 
G|-----------------14----------14-------------| 
D|--------------------------------------------| 
A|--------------------------------------------| 
E|--------------------------------------------| 
Am G Yo sé que, al final Dm Am A mí no me olvidas tan siquiera un poco G Al final Dm Am Baby, tú extrañas cómo yo te toco G Recuerda Dm De tu cuerpo sé yo, mami Am G Cada rincón, por dentro y por fuera Dm Am Dile que volví por ti (yeh, yeh, yeh, yeh)

Verse 2:

Am G Yo soy ese tatuaje, mami, que no se te borra Dm Am Sin palomería', yo no bajo con cotorra G Dile al bobo ese que еn mí siempre es quе tú piensa' Dm Am Que, cuando él termina, es cuando tú apenas comienza' G Y ahí es, ahí es Dm Am Cuando tú siente' la diferencia G Yo siempre te daba con consistencia Dm Am Dile que se retire, haga su diligencia Am G Porque volví por ti Dm Am Pa' hacértelo bien rico como te gusta a ti G Ponte en cuatro y te la saco como lo hace tatís Dm Am Te montaste en la jeepeta y no tenía' panti G So no te engañes Dm Am Que es imposible que no me extrañe' G Lo nuestro es de años, no hay forma de que se dañe Dm Am Con él, ni suda', no hace falta ni que tú te bañe' G Después de lo' polvo' conmigo, las sábanas, hay que botarlas Dm Am Toalla pa' la nena, pa' secarla G Dm No quiero a otra, tú eres la que sabe sacarla Am Hoy, vine pa' rescatarla (so nasty)
Am G Yo sé que, al final Dm Am A mí no me olvidas tan siquiera un poco G Al final Dm Am Baby, tú extrañas cómo yo te toco G Recuerda Dm De tu cuerpo sé yo, mami Am G Cada rincón, por dentro y por fuera Dm Am Dile que volví por ti (yeh, yeh, yeh, yeh)
E|-10--8--7-----------------------------------| 
B|-----------10--10---------------------------| 
G|--------------------------------------------| 
D|--------------------------------------------| 
A|--------------------------------------------| 
E|--------------------------------------------| 

Bridge:

Am G ¿cómo carajo ese palomo va a compararse conmigo? Dm Am Ni te conoce, mientras yo soy tu delirio G Tengo la fecha escrita en el calendario Dm Si yo volví a aventura, tú regresas a mi lado, baby

Verse 3:

Am G Que cuente las horas Dm Am Es su destino, tú y yo tenemo' historia G Para que él vea que el dinero no lo es todo Dm Am Te enamoré con mi lujuria, yo controlo G Dm Am (tú) sabes que ese tipo es temporal Anda, arranca y dile Am G (tú__ú) despide de una vez a ese cabró Am G Ey, porque volví por ti Dm Am Pa' hacértelo bien rico como te gusta a ti G Ponte en cuatro y te la saco como lo hace tatís Dm Am Te montaste en la jeepeta y no tenía' panti G Porque volví, mami, por ti Dm Am Lo haces con él, pero pensando en mí G Inconforme con ese infeliz Dm Hey, you end up with me
Am G Yo sé que, al final Dm Am A mí no me olvidas tan siquiera un poco G Al final Dm Am Baby, tú extrañas cómo yo te toco G Recuerda Dm De tu cuerpo sé yo, mami Am G Cada rincón, por dentro y por fuera Dm Am Dile que volví por ti (yeh, yeh, yeh, yeh)
( Am G Dm ) ( Am G Dm Am ) Final: Am G Tú ere' mía, bebé Am Tú ere' mía, bebé G Vamo' a hacerlo otra ve' Am Vamo' a hacerlo otra ve' G Tú ere' mía, bebé Am Tú ere' mía, bebé G Vamo' a hacerlo otra ve' Am Jaja, eyy
share this page

See Also: