E-Chords
Baco Exu do Blues

Samba In Paris (part. Gloria Groove)(Chords)

Baco Exu do Blues

Key: Db
Intro: F#7M  C#7M  C#º 
                                                                    
  F#7M                          C#7M             C#º 
E|-------4-4p6------4p6-6h4---------------------------------------| 
B|-----6--------------------6-------------------------------------| 
G|----------------------------6-6h8-------------------------------| 
D|----------------------------------------------------------------| 
A|----------------------------------------------------------------| 
E|----------------------------------------------------------------| 

   F#7M                          C#7M             C#º 
E|-------4-4p6------4p6-6h4---------------------------------------| 
B|-----6--------------------6-------------------------------------| 
G|----------------------------6-6h8-------------------------------| 
D|----------------------------------------------------------------| 
A|----------------------------------------------------------------| 
E|----------------------------------------------------------------| 
F#7M Drinks, lingeries, Gucci Mainha ou mon chéri C#7M Fiz um samba em Paris C#º Só pra te ver dançar F#7M Drinks, lingeries, Gucci Mainha ou mon chéri C#7M Fiz um samba em Paris C#º Só pra te ver dançar F#7M Tudo você taca o foda-se C#7M Tentam controlar você C#º Mas você é demais pra esses caras F#7M Bonita demais para ceder C#7M Se eu tiver, não vou perder C#º Vou querer realizar suas taras F#7M Não é difícil de conviver C#7M Vou ficar, te prometer C#º Uma vida de adrenalina e muitas roupas caras F#7M Baby, o mundo é perigoso, mas nós é mais ainda C#7M Incontroláveis e selvagens, nós mandamos na vida F#7M Ela quebra a garrafa sempre que eu entro em briga C#7M O mundo contra nós, ainda tenho as C#º feridas F#7M Ne me quitte pas, não vou mais te deixar partir C#7M Ne me quitte pas, não vou mais te deixar partir F#7M Ne me quitte pas, não vou mais te deixar partir C#7M Ne me quitte pas, não vou mais te deixar C#º partir F#7M Drinks, lingeries, Gucci Mainha ou mon chéri C#7M Fiz um samba em Paris C#º Só pra te ver dançar F#7M Drinks, lingeries, Gucci Mainha ou mon chéri C#7M Fiz um samba em Paris C#º Só pra te ver dançar F#7M Nosso amor é lindo de se ver C#7M Meu azeite de dendê C#º Mais bonito que os corredores do Louvre F#7M Quente como o Sol de Saint Tropez C#7M Me derreto em você C#º Perdição como a noite em Moulin Rouge F#7M No Arco do Triunfo fiz uma passarela C#7M Eu vou quebrar o seu feitiço tipo a Bela e a Fera F#7M Nós dois no seu castelo entre poemas e crises C#7M Vou estancar seu sangue, beijar as C#º cicatrizes F#7M Ne me quitte pas, não vou mais te deixar partir C#7M Ne me quitte pas, não vou mais te deixar partir F#7M Ne me quitte pas, não vou mais te deixar partir C#7M Ne me quitte pas, não vou mais te deixar C#º partir F#7M Drinks, lingeries, Gucci Mainha ou mon chéri C#7M Fiz um samba em Paris C#º Só pra te ver dançar F#7M Drinks, lingeries, Gucci Mainha ou mon chéri C#7M Fiz um samba em Paris C#º Só pra te ver dançar

roll up this ad to continue

share this page

See Also: