E-Chords
Backyard Babies

Too Tough To Make Some Friends(Chords)

Backyard Babies

roll up this ad to continue

Key: Bm
Verse 

Bm 
Too tough to make some friends  

Bm 
Friends always call you  
    D 
and lie on the phone  
          A                          Bm 
like they think that you're tolerant too  
Bm 
but if they could see  
        D 
what is goin' to be 
                A                 Bm  
and that you're actually left all alone  

G I'm trying to prove D what I do's not for you it's for me
eb|-----------------| 
Bb|-----------------| 
Gb|-----------------| Too tough to make some friends.. x2 
Db|----7-9-7-9-7----| 
Ab|-9--5-7-5-7-5--9-| 
Eb|-7-------------7-| 

                  Hey! 
eb|------------------------------------------------------| 
Bb|------------------------------------------------------| 
Gb|------------------------------------------------------| 
Db|----7-9-7-9-7-----7-9-7-9-7--10-10-10-10-10-9-9-9-9-9-| 
Ab|-9--5-7-5-7-5--9--5-7-5-7-5--8--8--8--8--8--7-7-7-7-7-| 
Eb|-7-------------7--------------------------------------| 
Verse Bm Everything changes D it's all part of the plan A Bm planning them out of my life Bm and all I can do D when I'm thinkin' 'bout you A Bm I just switched to channel two
G I'm trying to prove D what I do's not for you it's for me
eb|-----------------| 
Bb|-----------------| 
Gb|-----------------| Too tough to make some friends.. x2 
Db|----7-9-7-9-7----| 
Ab|-9--5-7-5-7-5--9-| 
Eb|-7-------------7-| 

                  Hey! 
eb|------------------------------------------------------| 
Bb|------------------------------------------------------| 
Gb|------------------------------------------------------| 
Db|----7-9-7-9-7-----7-9-7-9-7--10-10-10-10-10-9-9-9-9-9-| 
Ab|-9--5-7-5-7-5--9--5-7-5-7-5--8--8--8--8--8--7-7-7-7-7-| 
Eb|-7-------------7--------------------------------------| 
share this page

See Also: