E-Chords
Backyard Babies

Bigger W-a Trigger(Chords)

Backyard Babies

roll up this ad to continue

Key: Bm
Intro 

  |------|x3|-------|                      |-------|x4|------| 
eb|-----------------|----------------------|-----------------| 
Bb|-----------------|----------------------|-----------------| 
Gb|-----------------|----------------------|-----------------| 
Db|-----------7-7---|----------------------|-----------7-7---| 
Ab|-9-9-9-9-9-5-5-7-|-9-9-9-9-9--9-9-9-9-9-|-9-9-9-9-9-5-5-7-| 
Eb|-7-7-7-7-7-----5-|-7-7-7-7-7--7-7-7-7-7-|-7-7-7-7-7-----5-| 
Verse Bm D A What were you thinkin' Bm D A when you went down? Bm D A it's kinda funny Bm D A since we always stuck around Bm D A what were you doin' Bm D A what went so bad? Bm D A you and me together B D A and everything we had Bm E run into a future G A try not hiding from my past Bm E I'm looking for tomorrow G A and the next day just as fast
Bm D F#m ooooonly one Bm D F#m A Bm on-ly lonely one Bm D A paranoia mornings Bm D A nightmares in my bed Bm D A too hard to fuckin' cry Bm D A so I'd rather sweat instead
Verse Bm D A no zero numbers Bm D A just having fun Bm D A no time for seconds Bm D A I'm the only lonely one Bm E run into a future G A try not hiding from my past Bm E I'm looking for tomorrow G A and the next day just as fast
Bm D F#m ooooonly one Bm D F#m A Bm on-ly lonely one
never pull the trigger cause your finger's working best
Solo 

eb|------------------------------------------------7---7-7-7-7-| 
Bb|------------------------------------------------7---7-7-7-7-| 
Gb|-----7---7--------7---9b11-9b11------7---9b10b9---9b11------| 
Db|-7h9---9---9--7h9---9------------7h9---9--------------------| 
Ab|------------------------------------------------------------| 
Eb|------------------------------------------------------------| 

eb|-----9-------9--7-7--------12b13-10----10-------------------| 
Bb|-7h10-10-7-10-------10\12-----------12----12-10~~-----------| 
Gb|------------------------------------------------------------| 
Db|------------------------------------------------------------| 
Ab|------------------------------------------------------------| 
Eb|------------------------------------------------------------| 
Verse Bm E run into a future G A try not hiding from my past Bm E I'm looking for tomorrow G A and the next day just as fast Bm E you want it all G A you do not want the rest
Bm D F#m ooooonly one Bm D F#m A on-ly lonely
Outro Bm Bm you think you're bigger with a trigger
share this page

See Also: