E-Chords
Backyard Babies

A Song For The Outcast(Chords)

Backyard Babies

roll up this ad to continue

Key: Bm
Lead-Intro 
                     Bm                  Bm 
e|-----7---10-9-7----7------7---10-9-7------| 
B|-4\7---7--------10----4\7---7--------7-10-| 
G|------------------------------------------| 
D|------------------------------------------| 
A|------------------------------------------| 
E|------------------------------------------| 

e|-----7---10-9-7---------------------------| 
B|-4\7---7--------7-10-8-8-7-7--7/5---------| 
G|----------------------------------7-------| 
D|------------------------------------9-----| 
A|------------------------------------------| 
E|------------------------------------------| 

e|------------------------------------------| 
B|------------------------------------------| 
G|-----7-9b10b9-7----------7-9^10^9-7-------| 
D|-7h9------------9----7h9------------------| 
A|------------------------------------------| 
E|------------------------------------------| 

e|------------------7--7-7--------------7---| 
B|------------------7--7-7------10-7-10-----| 
G|-----7-9b10b9-7----------9b11-------------| 
D|-7h9------------9-------------------------| 
A|------------------------------------------| 
E|------------------------------------------| 

e|-5h7--5h7-5-------------------------------| 
B|------------7-5h7--7-5--------------------| 
G|-----------------------7------------------| 
D|-------------------------9----------------| 
A|------------------------------------------| 
E|------------------------------------------| 
Verse Bm Roses are red the seed has been spread G D F#m Bm Three can keep a secret if two of them's dead Bm Blood on their hands cut family bands G D F#m Bm not enough life without been giving a chance
G D Are we meant to be angels falling F#m Bm or do we live to survive? G D A D C# Bm A This illusion ain't my way when everybody's walking out on
Verse Bm G D F#m On the road to a strict perfection Bm G D F#m Only the beauty live to tell Bm G D F#m This is the source of all the infections Bm G D F#m Bm Jaded but I won't fade out w:th you Fill
e|-----7---10-9-7----7-| 
B|-4\7---7--------10---| 
G|---------------------| 
D|---------------------| 
A|---------------------| 
E|---------------------| 
Verse Bm Monster's been fed thousands ahead G D F#m Bm It's all in your books but has never been said Bm I color my art black for my heart G D F#m Bm Run until I run no more I'm back from the start
G D Are we meant to be angels falling F#m Bm or do we live to survive? G D A D C# Bm A This illusion ain't my way when everybody's walking out on
Verse Bm G D F#m On the road to a strict perfection Bm G D F#m Only the beauty live to tell Bm G D F#m This is the source of all the infections Bm G D F#m G Jaded but I won't fade out with Fill Pre-Solo
e|---10-9-7---10-9-7---10-9-7---10-9-7---10-9-7-------------10-9-7-| 
B|-7--------7--------7--------7--------7--------10^12^10--7--------| 
G|-----------------------------------------------------------------| 
D|-----------------------------------------------------------------| 
A|-----------------------------------------------------------------| 
E|-----------------------------------------------------------------| 
G Bm No, I won't fade out with you Living our life love self-destruction G A No, I won't fade out with you Solo Bm What is your fear invitations are here G D F#m Bm Cry a river inside but never shed any tears Bm Me and my saint you and your taint G D F#m Bm Born in the middle and the story maintain
G D Are we meant to be angels falling F#m Bm or do we live to survive? G D A D C# Bm A This illusion ain't my way when everybody's walking out on G D Are we meant to be angels falling F#m Bm or do we live to survive? G D A This illusion ain't my way when everybody's walking out on A D C# Bm A everybody's walking out on
Outro Bm G D F#m On the road to a strict perfection Bm G D F#m Only the beauty live to tell Bm G D F#m This is the source of all the infections Bm G D F#m Bm Jaded but I won't fade out with you Bm G D F#m On the road to a strict perfection Bm G D F#m Only the beauty live to tell Bm G D F#m This is the source of all the infections Bm G D F#m Bm Jaded but I won't fade out with
share this page

See Also: