E-Chords
Azul Violeta

Extasis(Chords)

Azul Violeta

Key: C
INTRO: C    F  
    C	   F	C	F	C	      F		C	F 
Abre tus ojos respira el fuego abre tus ojos a este amor eterno 
   F	C	F       C	F            C	  F 
Las mentiras nos hirieron, mataron la confianza 

Dm              E7	    Dm		E7 
Cuando las lagrimas se secan el dolor se va 
Am	    E7		Am             Em 
Me gustaría vivir en éxtasis con tigo  
SOLO 
       C              
E--3/--5---5----5----5----5-------------8-/-10---10---10---10----10-/-8-------- 
B--3/--5---5---5-----5----5-------------8-/-10---10---10---10----10-/-8------- 
G---------------------------------------------------------------------------- 
D--------------------------------------------------------------------------- 
A----------------------------------------------------------------------------- 
E---------------------------------------------------------------------------- 

E--8----8-/-5-----5----5-/-3----3---3-/-5---5---5---5-----3-----0-----3----0---0-- 
B--8----8-/-5-----5----5-/-3----3---3-/-5---5---5---5-----3-----1-----3----1---1- 
G------------------------------------------------------------------------------- 
D-------------------------------------------------------------------------------- 
A-------------------------------------------------------------------------------- 
E-------------------------------------------------------------------------------- 
C F C F Abre las puertas déjame entrar C F C F Que nuestra historia se repita una y otra vez F C F C Porque herirnos ¿ si nos amamos tanto F C F Abre tus puertas a este amor Dm E7 Dm E7 Cuando las lagrimas se secan el dolor se va Am E7 Am E7 Me gustaría flotar en espiral con tigo Am E7 Am E7 Quemarnos en el fuego de esta amor divino Am E7 Am E7 Acariciar tu piel hasta el final del tiempo Am E7 Am E7 Me gustaría vivir en éxtasis con tigo Am E7 Am E7 Éxtasis Éxtasis Contigo dudas o comentarios, mentadas o correcciones a mi mail [email protected] esta rola se la dedica a mi novia sesi (yeya)

roll up this ad to continue

share this page

See Also: