E-Chords
Ayub Bachchu

Sei Tumi(Chords)

Ayub Bachchu

roll up this ad to continue

Key: C

Intro: 
e|----------------1h-----3-------| 
B|--1h------------3------3--1----| 
G|--------0----------------------| 
D|----------2--------------------| 
A|-----3-------------------------| 
E|-------------------------------| 

C Cm7 shei tumi keno eto ochena hole C G shei ami keno tomake dukkho dilem C Cm7 kemon kore eto ochena hole tumi C G kibhabe eto bodle gechi ei ami C Em o o bukeri shob koshto du hate Am Dm shoriye cholo bodle jai F Dm G tumi keno bojhona tomake chara ami oshohai C E Am amar shob tuku bhalobasha tomai niye Dm F Dm amar oporadh chilo joto tuku tomar kache C Em C tumi khoma kore dio amai
LEAD: 
e|------------------------------------------------------------| 
B|------5-6-6s8--8s10--10-8-6-8--5-------5-6--5---------------| 
G|--5-7-------------------------5--7-------7--5-7-7s9--4------| 
D|------------------------------------------------------------|
A|------------------------------------------------------------|
E|------------------------------------------------------------|
C Em Am C kotorat ami kedechi, buker govire koshto niye C Em Am C shunnotai dube gechi ami, amake tumi firiye nao F Dm G tumi keno bojhona tomake chara ami oshohai C E Am amar shob tuku bhalobasha tomai niye Dm F Dm amar oporadh chilo joto tuku tomar kache C Em C tumi khoma kore dio amai C Em jotobar bhebechi bhule jabo Am C aro beshi mone pore jai C Em fele asha shei shob din gulo Am C bhule jete ami parina. F Dm G tumi keno bojhona tomake chara ami oshohai C E Am amar shob tuku bhalobasha tomai niye Dm F Dm amar oporadh chilo joto tuku tomar kache C Em C tumi khoma kore dio amai
share this page

See Also: