E-Chords
Aviões do Forró

Vogais Da Paixão(Chords)

Aviões do Forró

Key: C
(intro) C9 C7M/9 

          C     Am 
Vou me declarar 
       F          G 
nas vogais da paixão 
          Em   Am 
Pra você saber 
     F     G 
do meu coração 

(solo 1) 
 C F G (2x) 
E |---------------------------------------------------8-8-8-8-7-8-7-5-----| 
B |--10-10-10-10-8-8-8-8-----10-10-10-10-8-8-8-8----------------------8---| 
G |---------------------------------------------------------------------7-| 

E |------7----------------7----------------------------------| 
B |--------8-8-8------------8-8-8----5-6-5-6-5-6-5----6/8~~--| 
G |-7-5-7------------7-5-7------------------------7-5--------|
C Am Vou me declarar F G nas vogais da paixão Em Am Pra você saber F G do meu coração Dm Descobrir as cincos letras do segredo C G/B Am que me faz amar você Dm F E dizer que tudo que eu sinto por você G escrevi com amor cada detalhe C7 F G C A, de Aviao, a de Amor, F G Am E, de Emoção, É você F G C I, de Inspiração, Imortal (2x) Dm O, de Obrigada por me proteger F G C C7 U, de Único amor da minha vida é você
(solo 2) 
F G C F G Am F Dm G 

E |-----------------------------------------------7-8--7-5-7-5~--| 
B |-5-6-8---8/10~----8---------5-6-8---8/10~----8----------------| 
G |-------5------------7-9~----------5---------------------------| 

E |-12-12-12-12/10-10-10-10/8-8-8-8p7-5~-----12-12-12-12/10-10-10-10/8p7~-| 
B |-----------------------------------------------------------------------| 
G |-----------------------------------------------------------------------|
C Am Vou me declarar F G nas vogais da paixão Em Am Pra você saber F G do meu coração Dm Descobrir as cincos letras do segredo C G/B Am que me faz amar você Dm F E dizer que tudo que eu sinto por você G escrevi com amor cada detalhe C7 F G C A, de Aviao, a de Amor, F G Am E, de Emoção, É você F G C I, de Inspiração, Imortal Dm O, de Obrigada por me proteger F G C C7 U, de Único amor da minha vida é você C#7 F# G# C# A, de Aviao, a de Amor, F# G# A#m E, de Emoção, É você F# G# C# I, de Inspiração, Imortal D#m O, de Obrigada por me proteger F# G# C# C#7 U, de Único amor da minha vida é você C#9 C#7M/9 C#9 A#m F# G# C# As cinco letras: A,E,I,O,U.

roll up this ad to continue

share this page

See Also: