E-Chords
Artur Holanda

Paradoxo(Chords)

Artur Holanda

roll up this ad to continue

Key: C
Estrofe 1, 3 e 5: 

  C      G      Am     F 
E|----------3-------------------------------| 
B|-3--------------------------3-------------| 
G|-------------------2----------------------| 
D|---0--------0--------2--------2-----------| 
A|-------1--------3--------1--------1-------| 
E|-----0--------3--------0--------1---------| 

Intro e estrofe 2 e 4: 

    C      G      Am     F 
E|--------3--------------------------| 
B|-3--------------------3------------| 
G|---------------2-------------------| 
D|---0------0------2------2----------| 
A|-----1------3------1------1--------| 
E|-----0------3------0------1--------| 
Estrofe 1: C G Am F Eu sinto falta de nós C G Am F Vivenciar as nossas lembranças C G Am F Meu pensamento é o teu lar C G Am F E no momento não posso te deixar Estrofe 2: C G Am F Vivo bem melhor assim C G Am F Me sentir preso é na verdade bem ruim C G Am F Eu espero poder continuar C G Am F Como uma brisa solta pelo ar Estrofe 3: C G Am F Meus pensamentos só pertencem a você C G G F E tudo que eu mais quero nessa vida é te abraçar C G Am F Viver bem colado ao seu lado é o meu lugar C G Am F Uma casinha linda pra gente compartilhar Estrofe 4: C G Am F Tinha esquecido como é a liberdade C G Am F De sair por ai sem ter que me preocupar C G Am F Não ter razões e nem motivos pra voltar C G Am F O mais puro instinto da minha vaidade C G Am F Fazer somente aquilo que me der vontade Estrofe 5: C G Am F Ficar olhando o seu retrato na parede C G Am F A unica imagem que eu tenho de você C G Am F Ficar olhando pensando nesses dias C G Am F Eu tenho medo de tentar te esquecer
share this page

See Also: