E-Chords
Armando e Aquiles

Yamaha(Chords)

Armando e Aquiles

Key: G
Intro: G  D/F#  Em 
        Am  G  D/F# 


E|---------------------------| 
B|---------------------------| 
G|---------------------------| 
D|---------------------------| 
A|---------2~-------2-3-5~~~~| 
E|---2-3-5----2-3-5----------| 

G 
Eeeeeeeee Yamaha, eeeeeeeee Yamaha 
                     Am 
Com seu ronco violento 
                   D 
É a motoca do momento 
                         G 
Que eu dirijo em disparada 

E|---------------------------| 
B|---------------------------| 
G|---------------------------| 
D|---------------------------| 
A|---------2~-------2-3-5~~~~| 
E|---2-3-5----2-3-5----------| 
G Eeeeeeeee Yamaha, eeeeeeeee Yamaha Am Com seu ronco violento D É a motoca do momento G D/F# Em Que eu dirijo em disparada Am Em alta velocidade D Rodando pela cidade G Com a minha namorada
E|---------------------------| 
B|---------------------------| 
G|---------------------------| 
D|---------------------------| 
A|---------2~-------2-3-5~~~~| 
E|---2-3-5----2-3-5----------| 
G Eeeeeeeee Yamaha, eeeeeeeee Yamaha Am Com seu ronco violento D É a motoca do momento G Que eu dirijo em disparada
E|---------------------------| 
B|---------------------------| 
G|---------------------------| 
D|---------------------------| 
A|---------2~-------2-3-5~~~~| 
E|---2-3-5----2-3-5----------|    
G Eeeeeeeee Yamaha, eeeeeeeee Yamaha Am Com seu ronco violento D É a motoca do momento G D/F# Em Que eu dirijo em disparada Am Esta máquina é forte D Roda no globo da morte G D/F# Em E topa qualquer parada ( Am G D/F# )
E|---------------------------| 
B|---------------------------| 
G|---------------------------| 
D|---------------------------| 
A|---------3~-------3-4-6~~~~| 
E|---3-4-6----3-4-6----------|  
G# Eeeeeeeee Yamaha, eeeeeeeee Yamaha A#m Com seu ronco violento D# É a motoca do momento G# Que eu dirijo em disparada
E|---------------------------| 
B|---------------------------| 
G|---------------------------| 
D|---------------------------| 
A|---------3~-------3-4-6~~~~| 
E|---3-4-6----3-4-6----------|  
G# Eeeeeeee Yamaha, eeeeeeeee Yamaha A#m Com seu ronco violento D# É a motoca do momento G# G Fm Que eu dirijo em disparada A#m No asfalto, na estrada D#m Está sempre em disparada G# com a sua cilindrada
E|---------------------------| 
B|---------------------------| 
G|---------------------------| 
D|---------------------------| 
A|---------3~-------3-4-6~~~~| 
E|---3-4-6----3-4-6----------|    
G# Eeeeeeeee Yamaha, eeeeeeeee Yamaha A#m Com seu ronco violento D# É a motoca do momento G# Que eu dirijo em disparada
E|---------------------------| 
B|---------------------------| 
G|---------------------------| 
D|---------------------------| 
A|---------3~-------3-4-6~~~~| 
E|---3-4-6----3-4-6----------|    
G# Eeeeeeeee Yamaha, eeeeeeeee Yamaha A#m Com seu ronco violento D# É a motoca do momento G# G Fm Que eu dirijo em disparada

roll up this ad to continue

share this page

See Also: