E-Chords
Armandinho

Paulinha / Folha De Bananeira (pot-pourri)(Chords)

Armandinho

Key: F
F              Gm         C          F 
Eu conheci Paulinha numa noite de verão 
                  Gm         C         F 
E o bumbo do meu reggae fez tumtum no coração 
            Bb                     F 
Covinha no sorriso uma menina uma mulher 
                 Gm           C              F 
Na flor da margarida foi brincar de bem me quer 

    Am                 Dm 
Ai ai ! Paulinha me encantou 
          Gm          C           F 
Vem cá comigo pra provar do meu amor 
    Am                    Dm 
Ai ai ! Paulinha me encantou 
          Gm          C           F 
Vem cá comigo pra provar do meu amor 

                 Bb                    F 
Será que ela me bem, será que mal me quer 
             Gm      C         F 
Depois dos quinze menina virá mulher 

               Gm         C        F 
Eu conheci paulinha numa noite de verão 
                Gm        C           F 
E o toque da zabumba fez tumtum no coração 
            Bb                     F 
Covinha no sorriso uma menina uma mulher 
                 Gm           C              F 
Na flor da margarida foi brincar de bem me quer 

    Am                    Dm 
Ai ai ! Paulinha me encantou 
          Gm          C           F 
Vem cá comigo pra provar do meu amor 
    Am                    Dm 
Ai ai ! Paulinha me encantou 
          Gm          C           F 
Vem cá comigo pra provar do meu amor 

                 Bb                    F 
Será que ela me bem, será que mal me quer 
             Gm      C         F 
Depois dos quinze menina virá mulher 

Solo 

E|-----------------6--5--5/6\5---8--6--5----5---------| 
B|--------5--6--8------------------------8----8--6----| 
G|--5--7-------------------------------------------7--| 
D|----------------------------------------------------| 
A|----------------------------------------------------| 
E|----------------------------------------------------| 
E|--------5--6--5-----5-------------------------------| 
B|--6--8-----------8-----8--6-----6--8--6/8\6-----6---| 
G|-----------------------------7---------------7------| 
D|----------------------------------------------------| 
A|----------------------------------------------------| 
E|----------------------------------------------------| 
E|---------------------------------5--6--5--8--6--5---| 
B|--------------6--8--8--6--8--6----------------------| 
G|--------5--7----------------------------------------| 
D|--7--8----------------------------------------------| 
A|----------------------------------------------------| 
E|----------------------------------------------------| 
E|----------------------------------------------------| 
B|--8--8--6--8--6~~-----------------------------------| 
G|----------------------------------------------------| 
D|----------------------------------------------------| 
A|----------------------------------------------------| 
E|----------------------------------------------------| 
Gm C F Eu conheci Paulinha numa noite de verão Gm C F E o bumbo do meu reggae fez tumtum no coração Bb F Covinha no sorriso uma menina uma mulher Gm C F Na flor da margarida foi brincar de bem me quer Am Dm Ai ai ! Paulinha me encantou Gm C F Vem cá comigo pra provar do meu amor Am Dm Ai ai ! Paulinha me encantou Gm C F Vem cá comigo pra provar do meu amor Bb F Será que ela me bem, será que mal me quer Gm C F Depois dos quinze menina virá mulher Gm C F Depois dos quinze menina virá mulher Gm C F Depois dos quinze só não vira se não quer F Gm Fuma, fuma, fuma folha de bananeira C F Fuma na boa, só de brincadeira Solo
E|---------------------------------------| 
B|--8/10-8-6-6/8-8----8/10-8-6-----------| 
G|-----------------7-----------7-5-------| 
D|---------------------------------------| 
A|---------------------------------------| 
E|---------------------------------------| 
E|---------------------------------------| 
B|-8/10-8-6-6/8-8-6-8/10-8-6-8-6---------| 
G|---------------------------------------| 
D|---------------------------------------| 
A|---------------------------------------| 
E|---------------------------------------| 
F Gm Fuma, fuma, fuma folha de bananeira C F Fuma na boa, só de brincadeira Bb F Seu guarda cê não pode me prendê C F É só um fino que eu acabo de cumê Bb F Se chegou tarde o que posso fazer C F Sou de menor e cê não pode me batê F Gm Fuma, fuma, fuma folha de bananeira C F Fuma na boa, só de brincadeira Bb F Seu guarda não cheire a minha mão C F Sou seu amigo agora preste atenção Bb F A folha é boa, é erva fina C F Fumo na boa só pra pega as menina F Gm Fuma, fuma, fuma folha de bananeira C F Fuma na boa, só de brincadeira Bb F C F Ohhh cabróbró, ohhh cabróbró Bb F C F Ohhh cabróbró, ohhh cabróbró Bb F Seu guarda, não sou ladrão C F Passei de ano sem recuperação Bb F Enquanto isso eu vou descendo a minha lomba C F Andando de skate, estourando a minha bomba F Gm Fuma, fuma, fuma folha de bananeira C F Fuma na boa, só de brincadeira Solo
E|-----------------------------------------------------| 
B|-----------------------------------------------------| 
G|---1/2--0------------------2--0----------------------| 
D|-----------3---5---3/5--0--------3-------------------| 
A|------------------------------------5--3-------------| 
E|-----------------------------------------------------| 
E|-----------------------------------------------------| 
B|-----------------------------------------------------| 
G|---1/2--0------------------2--0----------------------| 
D|-----------3---5---3/5--0--------3--5--3-------------| 
A|-----------------------------------------------------| 
E|-----------------------------------------------------| 
Bb F Seu guarda não cheire a minha mão C F Sou seu amigo agora preste atenção Bb F A folha é boa, é erva fina C F Fumo na boa só pra pega as menina F Gm Fuma, fuma, fuma folha de bananeira C F Fuma na boa, só de brincadeira

roll up this ad to continue

share this page

See Also: