E-Chords
Armandinho

Casa Do Sol / Sentimento (pot-pourri)(Chords)

Armandinho

Key: F
Intro: F  Am  Bb7M  C 

Tab - Solo 

Parte 1 de 8 
E|-5-5-5-------5----------------5-------5-5-5---------| 
B|-------8-6-8---8--6-6-6-6-5-6---8-6---------8-6-8-8-| 
G|------------------------------------7---------------| 
D|----------------------------------------------------| 
A|----------------------------------------------------| 
E|----------------------------------------------------|

Parte 2 de 8 
E|-5---------------------5---------------------5-5-5--| 
B|---8-6-5-6---5-6-8-6-8---8-6-6-------6-----6--------| 
G|-----------7-------------------5-5-7---5-7----------| 
D|----------------------------------------------------| 
A|----------------------------------------------------| 
E|----------------------------------------------------| 

Parte 3 de 8 
E|----------5-----------------------------------------| 
B|8-6-8-8-6---8-6-6-------6-----6-6/8---8-6-8-8-6-8-6-| 
G|------------------5-5-7---5-7-------7---------------| 
D|----------------------------------------------------| 
A|----------------------------------------------------| 
E|----------------------------------------------------|

Parte 4 de 8 
E|-5-6-8-6-5-6-5------------------------------5-6-8---| 
B|---------------5-6-8-6-5-6-5----------5-6-8---------| 
G|-----------------------------5-7-5-7~---------------| 
D|----------------------------------------------------| 
A|----------------------------------------------------| 
E|----------------------------------------------------|

Parte 5 de 8 
E|-5-8-8-8-8-5-6-8-8-8-8-5-6-8-5-6-8/10-8-8-6-5-------| 
B|----------------------------------------------8-5---| 
G|----------------------------------------------------| 
D|----------------------------------------------------| 
A|----------------------------------------------------| 
E|----------------------------------------------------| 

Parte 6 de 8 
E|5-8-8-8-8-5-6-8-8-8-8-5-6-6-5-----------------------| 
B|----------------------------------------------------| 
G|----------------------------------------------------| 
D|----------------------------------------------------| 
A|----------------------------------------------------| 
E|----------------------------------------------------|

Parte 7 de 8 
E|-------5-------5---5-5-----5------------------------| 
B|-5-6-8---8-6-5---6-----6-8---6----------------------| 
G|----------------------------------------------------| 
D|----------------------------------------------------| 
A|----------------------------------------------------| 
E|----------------------------------------------------| 

Parte 8 de 8 
E|5---5-5---------------------------------------------| 
B|--6-----6-8-5-6-------------------------------------| 
G|----------------------------------------------------| 
D|----------------------------------------------------| 
A|----------------------------------------------------| 
E|----------------------------------------------------|
F Am Quando chega o entardecer Bb7M C7 É impossível não lembrar de você F Am Bb7M Dos momentos que juntos passamos ao sol C7 F Am No temporal você estava também ao meu lado Bb7M C7 F Na grama, na areia de Santa no fim de semana Am Bb7M Batendo na Casa do Sol C7 F Am Bb7M C7 Pra manhã nascer feliz
Tab - Solo 

Parte 1 de 2 
E|8-8-8-8-8-6-6-6-6-6---------------------------------| 
B|--------------------5-8-8-6-6-5-5-------------------| 
G|----------------------------------------------------| 
D|----------------------------------------------------| 
A|----------------------------------------------------| 
E|----------------------------------------------------| 

Parte 2 de 2 
E|-------------5-6-8-8-8------------------------------| 
B|-------5-6-8----------------------------------------| 
G|-7-5-7----------------------------------------------| 
D|----------------------------------------------------| 
A|----------------------------------------------------| 
E|----------------------------------------------------|
F Am Bb7M A melancolia das ondas quebrando sozinhas C7 Sem você F Am Lembrando teu beijo salgado e pedindo um Bb7M C7 Abraço pra aquecer Bb7M Am Gm O por do sol vai lembrar você Bb7M Am Gm O por do sol vai lembrar você ( F Bb7M F Bb7M ) ( F Bb7M F Bb7M ) ( F Bb7M F Bb7M ) ( F Bb7M F Bb7M ) F Bb7M F Sentimento, você não sabe o que se passa Aqui por dentro Bb7M F Bb7M Sentimento pra mim é documento, de alguém F Bb7M Muito amor pra dar, que tem muito amor pra dar F Bb7M F Sentimento, ta no reggae ta no amor pelo instrumento Bb7M F Por favor vê se liberte o sentimento Bb7M F O que eu não quero é ver o teu mundo sem amor Bb7M Teu mundo sem amor F Am7 Bb7M Eu quando te encontrar quero falar C7 De tudo q eu sinto F Am7 Bb7M C Sei que posso me perder, entrar nesse teu labirinto Bb7M Am7 Voce me parou pedindo meu amor Bb7M Am7 Mandou eu encostar, você q me encostou Bb7M Am7 Pediu meu documento, mas só tenho Bb7M Sentimento e eu dou C7 F Eu vou te subornar com meu amor Bb7M F Eu vou te subornar com meu amor Bb7M F Eu vou te subornar com meu amor Bb7M F Eu vou te subornar com meu amor Final F Bb7M F Bb7M F Bb7M F Bb7M F Bb7M F Bb7M F Bb7M F Bb7M

roll up this ad to continue

share this page

See Also: