E-Chords
Armandinho

Casa Do Sol(Chords)

Armandinho

Key: F#
Intro: F# Bbm7 G#m7 C#7 

|----------------------------------------| 
|----------------------------6--4--------| 
|----------------------------------6--4--| 
|-6h8-6-6----6-6h8--4h6-6-4--------------| 
|----------------------------------------| 
|----------------------------------------| 

Solo 1: F# Bbm7 G#m7 C#7 
|-6--7--9--9--7--6--7--9-------6--7--9?6h7--6----|---------------------| 
|-7-----------------------7h9------------------7-|---------7-6-7-9-6---| 
|-6----------------------------------------------|-----6-8-------------| 
|------------------------------------------------|6--8-----------------| 
|------------------------------------------------|---------------------| 
|------------------------------------------------|---------------------| 

|-6-7-9-6?9/11--9--7--6-----6---|----------6h7-9--|        
|-7----------------------9-----7|-----7-9---------| 
|-6-----------------------------|6h8--------------| 
|-------------------------------|-----------------| 
|-------------------------------|-----------------| 
|-------------------------------|-----------------| 
F#               Bbm7 
Quando chega o entardecer 
G#m7               C#7  (Riff 1) 
É impossível não lembrar de você 

Riff 1 
|-6-7--9/11--9-7-6-| 
|------------------| 
|------------------| 
|------------------| 
|------------------| 
|------------------| 
F# Bbm7 G#m7 Dos momentos que juntos passamos ao sol C#7 F# Bbm7 No temporal você estava também ao meu lado G#m7 C#7 (Riff 2) F# Na grama, na areia de Santa no fim de semana
Riff 2 
|-6--7?9--911--9-7-6-| 
|-7-------------------| 
|-6-------------------| 
|---------------------| 
|---------------------| 
|---------------------|
Bbm7 G#m7 Batendo na Casa do Sol C#7 F# Pra manhã nascer feliz
Solinho 2: Bbm7 G#m7 C#7 
|-6----------------------------------------------------6-| 
|---9--7-6--------------------------------6---7b6-7--9---| 
|-----------8-6-----------------------------8------------| 
|----------------6h8b6h8b6h8--6-----6/9------------------| 
|--------------------------------9-----------------------| 
|--------------------------------------------------------|
F# Bbm7 Quando chega o entardecer G#m7 C#7 (Riff 3) É impossível não lembrar de você
Riff 3 
|---------------------------| 
|-----------7-6---7--9-9/11~| 
|-------6-8-----------------| 
|-6--8----------------------| 
|---------------------------| 
|---------------------------|
F# Bbm7 G#m7 Dos momentos que juntos passamos ao sol C#7 F# Bbm7 No temporal você estava também ao meu lado G#m7 C#7 F# Na grama, em paz na pracinha no fim de semana Bbm7 G#m7 Batendo na Casa do Sol C#7 F# Pra manhã nascer feliz
Solo 3: Bbm7 G#m7 C#7 
|----------------------------------------------------------| 
|--------------------------------------------6-4-66--6-4-66| 
|-------------------------------------4--4-----------------| 
|-6/8--6-4---6-8-6-8---6-8-6-8---8-6--4--4-----------------| 
|----------------------------------------------------------| 
|----------------------------------------------------------|
Eee... F# Bbm7 G#m7 C#7 A melancolia das ondas quebrando sozinhas sem você F# Bbm7 G#m7 C#7 Lembrando teu beijo salgado e pedindo um abraço pra aquecer B7M Bbm7 (Riff 4) G#m7 O por do sol vai lembrar você
Riff 4 
|----------------6~| 
|------7b6--7-9----| 
|-6?8--------------| 
|------------------| 
|------------------| 
|------------------|
B7M Bbm7 G#m7 C#7 O por do sol vai lembrar você F# Bbm7 Quando chega o entardecer G#m7 C#7 É impossível não lembrar de você F# Bbm7 G#m7 Dos momentos que juntos passamos ao sol C#7 F# Bbm7 No temporal você estava também ao meu lado G#m7 C#7 F# Na grama, na areia de Santa no fim de semana Bbm7 G#m7 Batendo na Casa do Sol C#7 F# Pra manhã nascer feliz Eee... F# Bbm7 G#m7 C#7 A melancolia das ondas quebrando sozinhas sem você F# Bbm7 G#m7 C#7 Lembrando teu beijo salgado e pedindo um abraço pra aquecer B7M Bbm7 G#m7 O por do sol faz lembrar você

roll up this ad to continue

share this page

See Also: