E-Chords
Armandinho

Acordar Cedo(Chords)

Armandinho

Key: G
Intro: G  Am  C 
        G  Am  C 

E|-------------------------------------------------------| 
B|-------------------------------------------------------| 
G|-7h9--7--4-2------2--4--2~---4h5--4--4h5--4--4h5p4--4~-| 
D|-----------2--4----------------------------------------| 
A|-------------------------------------------------------| 
E|-------------------------------------------------------|
G Acordar cedo Am Sentir a energia salgada do vento C G E a doce brisa do mar Acordar cedo Am C E da uma sacada na bia no tempo G Ser que vai rola Acordar cedo Am C Fazer pela vida fazer por mim mesmo G Eu hei de conquistar Acordar cedo Am C Seguir pela trilha da onda da vida G Reza pra Iemanj
F C G Me eu vou voar F C G Me eu vou voar F C G Me eu vou voar (Hoje eu Vou) F C G Me eu vou voar
E|--------------------| 
B|--------------------| 
G|--------------------| 
D|--3-2-0-------------| 
A|--------3-0-2-3-----| 
E|----------------3---|
G Acordar cedo Am Sentir a energia salgada do vento C G E a doce brisa do mar Acordar cedo Am C E da uma sacada na bia no tempo G Ser que vai rola Acordar cedo Am C Fazer pela vida fazer por mim mesmo G Eu hei de conquistar Acordar cedo Am C Seguir pela trilha da onda da vida G Reza pra Iemanj
F C G Me eu vou voar F C G Me eu vou voar F C G Me eu vou voar (Hoje eu Vou) F C G Me eu vou voar
E|--------------------| 
B|--------------------| 
G|--------------------| 
D|--3-2-0-------------| 
A|--------3-0-2-3-----| 
E|----------------3---|
( G Am C ) ( G Am C ) F C G Me eu vou voar F C G Me eu vou voar F C G Me eu vou voar (Hoje eu Vou) F C G Me eu vou voar
E|--------------------| 
B|--------------------| 
G|--------------------| 
D|--3-2-0-------------| 
A|--------3-0-2-3-----| 
E|----------------3---|
Final G Am C G Am C

roll up this ad to continue

share this page

See Also: