E-Chords
Armandinho

A Filha(Chords)

Armandinho

Key: Ebm
Intro:  

       Ebmaj7               G#                 Ebmaj7         G#  

E|-----6---------6--------------6------------------------------6----------------10---6-------  
B|--------8---------8--6-----------8--6---------------------------8--6-----------------------  
G|-----------------------8--5--------------8--5---8---------------------8--5-----------------  
D|-------------------------------------------------------------------------------------------  
A|-------------------------------------------------------------------------------------------  
E|------------------------------------------------------------------------------------------- 
Ebmaj7 G# Quando me dá uma louca eu saio pra rua pra beijar na boca Ebmaj7 G# Ebmaj7 G# uma calça desbotada e a cabeça virada pra chamar a atençăo de vocę Ebmaj7 G# só de vocę... Ebmaj7 G# Ebmaj7 G#
E|--------------------------------------------------------------------------------------  
B|-------------------------------------------4-------------6----------------------------  
G|------------------------------------3---5-----5----3--5-------------------------------  
D|-----------1--------------3-----------------------------------------------------------  
A|-1----3-------3----1---3--------------------------------------------------------------  
E|-------------------------------------------------------------------------------------- 
Ebmaj7 G# Eu nunca saiu da linha, eu só saiu sozinha, năo tenho ninguém Ebmaj7 G# mamăe as vezes reclama que eu năo vou pra cama com alguém. Ebmaj7 G# Ela năo sabe, a filha que tem... Ela năo sabe, a filha que tem... Ebmaj7 G# Quando me dá uma louca eu saiu pra rua pra beijar na boca Ebmaj7 G# Ebmaj7 G# uma calça desbotada e a cabeça virada pra chamar a atençăo de vocę Ebmaj7 G# só de vocę... Ebmaj7 G# quando se sente oque se sente se for diferente, tem sempre o porque Ebmaj7 G# mamăe as vezes reclama, mais essa semana eu vou ter que dizer... Ebmaj7 G# Ela năo sabe, a filha que tem... Ela năo sabe, a filha que tem... Ebmaj7 Fm Nănănănănănănă... Nănănănănănănă... Ebmaj7 G# Quando me dá uma louca eu saiu pra rua pra beijar na boca Ebmaj7 G# Ebmaj7 G# uma calça desbotada e a cabeça virada pra chamar a atençăo de vocę Ebmaj7 G# só de vocę... Ebmaj7 G# Eu nunca saiu da linha, eu só saiu sozinha, năo tenho ninguém Ebmaj7 G# mamăe as vezes reclama que eu năo vou pra cama com alguém Ebmaj7 G# Ela năo sabe, a filha que tem... Ela năo sabe, a filha que tem... Ebmaj7 Fm Nănănănănănănă... Nănănănănănănă... Ebmaj7 Fm Nănănănănănănă... Nănănănănănănă... Ebmaj7 Fm Nănănănănănănă... Nănănănănănănă...
SOLO:  

E|----11-11-11--10--8-------------------------------------------------------------------  
B|--------------------11--8-9---8-9-8--6-8-6---4-4---4-6--4-6/8-------------------------  
G|--------------------------------------------------------------------------------------  
D|--------------------------------------------------------------------------------------  
A|--------------------------------------------------------------------------------------  
E|--------------------------------------------------------------------------------------  

E|--------------------------------------------------------------------------------------  
B|-------6-6---4-4-4--------------------------------------------------------------------  
G|----------------------5--3--3---3/5---------------------------------------------------  
D|--------------------------------------------------------------------------------------  
A|--------------------------------------------------------------------------------------  
E|-------------------------------------------------------------------------------------- 
Ebmaj7 Ela năo sabe, a filha que tem...

roll up this ad to continue

share this page

See Also: