E-Chords
Antony Santos

Antologia De Caricias(Chords)

Antony Santos

roll up this ad to continue

Key: F#
(segunda guitarra intro) 
F# G#7 C# A#m D#m G#7 C#  



(Capo en el 6to sastre)  
Primera intro: 
|:----------21--18-------18-18-----------------| 
|:-18-19-21-------21-19--------21-21-19--------| 
|:--------------------------------------20--18-| 
|:---------------------------------------------| 
|:---------------------------------------------| 
|:---------------------------------------------| 



|-------------20-------------------------------------| 
|-------18-19----21-21-19-18--1-19-19-18-------------| 
|17~-20----------------------------------18-17-15----| 
|----------------------------------------------------| 
|----------------------------------------------------| 
|----------------------------------------------------| 


|-------18-----------16-18~---20-16-18-14-16-13-14-11-9---| 
|-18-19-----19-18-16--------------------------------------| 
|---------------------------------------------------------| 
|---------------------------------------------------------| 
|---------------------------------------------------------| 
|---------------------------------------------------------| 

                                  1ra guitarra 
|-------9----9----9---:|     A#m  (x-x-11-10-11-x)                         
|----9----9-------9---:|     C#   (x-x-11-10-9-9)        
|-10-------------10---:|     D#m  (x-x-13-11-11-x)  
|----------------11---:|     Fm   (x-x-15-13-13-13) 
|---------------------:|     F#   (x-x-11-11-11-x) 
|---------------------:|     G#7  (x-x-0-8-7-8)
F# G#7 como dulce melodia esta noche C# A#m tu nombre penetro ahi mis sentidos D#m G#7 y se metio tan adentro, tan adentro C# que por eso salir no he podido F# G#7 me coloque como si fuera algo de magia C# A#m en un espacio colorido inmaginario D#m se cuando te entre el deseo de mis ansias G#7 C# del rojo me decido de tus lindo labios C# F# G#7 esta noche descubri las emociones C# A#m bajo tu hechizo y tus caminos extitantes D#m G#7 que deslumbrado por aquella sensaciones C# de tanto amar que si te veo en cada brazo coro: F# Vamos hacerlo a vela G#7 Fm una antologia de caricias A#m F# de lo mejor de la primer amor G#7 C# cuando alli me diste la primicia F# vamos hacerlo a vela G#7 Fm una antologia de caricia A#m F# repeticion de los remores han G#7 C# del amor que endulce nuestras vida F# aun yo guardo mi pudor D#m Fm el dolor de tu primera vez A#m F# un dolor que supo bien G#7 y una piel que grita ven C# ven endulceme otra vez Intro F# G#7 como dulce melodia esta noche C# A#m tu nombre penetro ahi mis sentidos D#m G#7 y se metio tan adentro, tan adentro C# que por eso salir no he podido F# G#7 me coloque como si fuera algo de magia C# A#m en un espacio colorido inmaginario D#m se cuando te entre el deseo de mis ansias G#7 C# del rojo me decido de tus lindo labios C# F# G#7 esta noche descubri las emociones C# A#m bajo tu hechizo y tus caminos extitantes D#m G#7 que deslumbrado por aquella sensaciones C# de tanto amar que si te veo en cada brazo coro: F# Vamos hacerlo a vela G#7 Fm una antologia de caricias A#m F# de lo mejor de la primer amor G#7 C# cuando alli me diste la primicia F# vamos hacerlo a vela G#7 Fm una antologia de caricia A#m F# repeticion de los remores han G#7 C# del amor que endulce nuestras vida F# aun yo guardo mi pudor D#m Fm el dolor de tu primera vez A#m F# un dolor que supo bien G#7 y una piel que grita ven C# ven endulceme otra vez hecha por Sal Orlando, Fl [email protected] para ver acordes: www.chordfind.com
share this page

See Also: