E-Chords
Antestor

Via Dolorosa(Chords)

Antestor

Key: D
Intro: D5  Bb5  C#5  F5  C5  D#5 

(Mantém a mesma sequencia de acordes) 

Your ideals are wicked and deceiving 
How can you find peace 
You seek the righteous, but find the void 

Die by the sword of live by the book 
Glimpse your death within the scunt 
Seek the righteous, find the truth 
The book of eternal youth 

Of generations  
Cold as stone, you wander still 
Awaiting your inevitable death 
Your quest has ended where it began 

( A5  B5  C5  B5  D5 ) 

( A5  B5  C5  B5  E5 ) 

( A5  B5  C5  B5  D5  C5  B5  A5 ) 

Refrão: 

 
E|-------------------------| 
B|-------------------------| 
G|-------------------------| 
D|---7-9-10-9-7-9-10-9-----| 
A|-------------------------| 
E|-------------------------| 
 
E|--------------------------------| 
B|--------------------------------| 
G|--------------------------------| 
D|---7-9-10-9-10-12-13-12-10-9-7--| 
A|--------------------------------| 
E|--------------------------------| 
 
E|------------------------------------------| 
B|------------------------------------------| 
G|------------------------------------------| 
D|---7-9-10-9-10-12-14-15-14-12-10--7h9-7---| 
A|------------------------------------------| 
E|------------------------------------------| 
But is there really a life for me Is there a place to dwell Pleasures of the flesh Via dolorosa ( A5 G5 A5 B5 C5 B5 A5 G5 A5 G5 F#5 E5 ) ( E5 B5 D5 C5 B5 C5 B5 C5 B5 A5 ) ( A5 D5 F5 E5 D5 C5 D5 C5 B5 A5 ) ( A5 B5 C5 B5 E5 F#5 G#5 A5 ) Of fear and despair, you've wandered Of hatred and grief, you've slaughtered I've seen you in your darkest hour I know you as myself Refrão:
 
E|------------------------| 
B|------------------------| 
G|------------------------| 
D|---7-9-10-9-7-9-10-9----| 
A|------------------------| 
E|------------------------| 
 
E|---------------------------------| 
B|---------------------------------| 
G|---------------------------------| 
D|---7-9-10-9-10-12-13-12-10-9-7---| 
A|---------------------------------| 
E|---------------------------------| 
 
E|------------------------------------------| 
B|------------------------------------------| 
G|------------------------------------------| 
D|---7-9-10-9-10-12-14-15-14-12-10--7h9-7---| 
A|------------------------------------------| 
E|------------------------------------------| 
But is there really a life for me... ( D5 F5 ) Via dolorosa, memento mori ( D5 Bb5 C#5 F5 C5 D#5 ) In you I've found my nothing In you I can't hide my pain In you my love has gone In you I've kept my cold Captor of sin, you've stolen my past Via dolorosa I've wasted my life for you My hate you create My blood is water My life means nothing My warmth has vanished

roll up this ad to continue

share this page

See Also: