E-Chords
Antena

Fascinación(Chords)

Antena

roll up this ad to continue

Key: Am
Amablemente Sergio Villanueva me envió los acordes, le he agregado el solo. 

      Am              F         C     G 
Conocerte es la más pura atracción, 
     Am          F          C     G 
Adorarte es una santa obsesión. 
  Em   Am      F          G 
Jesús,      amante de mi ser. 
  Em   Am   F          G 
Jesús,    dueño de mi fé. 

          C        G 
     Eres tú, eres tú 
     Am         F 
     Mi veneración 
          C        G 
     Eres tú, eres tú 
     Am           F 
     Mi fascinación. 

Agradarte es una dulce satisfacción, 
Armirarte, la más sublime adicción. 
Jesús, amante de mi ser. 
Jesús, eres el dueño de mi ser. 


solo 
e||----------------------------------| 
B||------------13\-6---6-5--6--------| 
G||--5///12--------------------7-----| 
D||----------------------------------| 
A||----------------------------------| 
E||----------------------------------| 

|------------------------------------------------|| 
|------------13-\-------------------13-------13--|| 
|--5///12---------10----10-9--10--12----12-------|| 
|------------------------------------------------|| 
|------------------------------------------------|| 
|------------------------------------------------|| 
Am-F-C-G Eres tú mi vida, Eres tú el centro de mi devoción. Eres tú mis ganas de vivir, Eres tú la esencia de mi existir, Eres tú.
share this page

See Also: