E-Chords
Anna Calvi

Surrender(Chords)

Anna Calvi

roll up this ad to continue

Key: D

RIFF 1 
|--------------| 
|--------------| 
|--------------| 
|--------------| 
|---------6-5--| 
|--3--6-3------| 

RIFF 2 
|--------------| 
|--------------| 
|--------------| 
|---------6-5--| 
|--3--6-3------| 
|--------------| 


--- 


INTRO 

|-----------------------------------| 
|-----------------------------------| 
|-----------------------------------| 
|-----------------------------------| 
|--5-5-5/6-6-6-6-6/7-7-7\6-6-6-6-6--| 
|-----------------------------------|x2 
RIFF 1 x4 (palm muted) RIFF 1 x4 When we kiss my heart's on fire RIFF 2 x2 RIFF 1 x2 Burning with a strange desire RIFF 2 x2 RIFF 1 And I know, each time I kiss you D9 RIFF 1 That your heart's on fire too Am So, my darling, please surrender D G All your love so warm and tender Am Let me hold you in my arms, dear D G While the moon shines bright above Am All the stars will tell the story D Ddim Em Of our love and all its glory Cm Gm Let us take this night of magic D9 G And make it a night of love (palm muted) Am So won't you please surrender to me D G Your lips, your arms, your heart, dear Cm G Be mine forever D9 Be mine tonight RIFF 1 x3
share this page

See Also: