E-Chords
Angus And Julia Stone

Wherever You Are(Chords)

Angus And Julia Stone

roll up this ad to continue

Capo on 1st fret
 

  


VERSE 
e|-------4-------4--------------5-------5--------------5-----5------------5------5------| 
B|----2-------2--------2-----2-------2--------2-----2------2-----2----2------2---------2| 
G|--------------------------------------------------------------------------------------| 
D|--------------------------------------------------------------------------------------| 
A|--4------4-------4------5-------5-------5------0-------0-----0----0-----0--------0----| 
E|--------------------------------------------------------------------------------------| 

e|-------4-------4--------------2-------2--------------0-----0------------0------0------| 
B|----2-------2--------2-----2-------2--------2-----2------2-----2-----2------2--------2| 
G|--------------------------------------------------------------------------------------| 
D|--------------------------------------------------------------------------------------| 
A|--4------4-------4------5-------5-------5------0-------0-----0-----0-----0--------0---| 
E|--------------------------------------------------------------------------------------| 
We're living in the gold Driving in your car And the cases that went cold I want to be wherever you are And we're sitting in that room And you spoke in Japanese Singing words, 'I'll come home soon' Want to please you You want to please me
Chorus  
e|--------------------------------------------------------------------------------------| 
B|-------2------2-------------3-------3---------------2------2-----------3-----3--------| 
G|----2-------2-------2-----2-------2--------2------2------2-----2-----2-----2------2---|  2 X 
D|--------------------------------------------------------------------------------------| 
A|--4------4-------4------5-------5-------5------0------0------0-----5-----5------5-----| 
E|--------------------------------------------------------------------------------------| 

e|----------------------------------------| 
B|------2------2-----------3-----3--------| 
G|----2------2-----2-----2-----2------2---|   
D|----------------------------------------| 
A|-0------0------0-----5-----5------5-----| 
E|----------------------------------------| 
Don't take my word for it Just look at me to know that I love you Don't take my word for it Just look at me to know that I do Look at me to know that it's true VERSE Driving around that town Where you've been before And we're like the kids from Candy Kissing in the grocery store And there's nowhere else to be I could live in your old car With the broken stereo I want to be wherever Wherever you are Chorus Don't take my word for it Just look at me to know that I love you Don't take my word for it Just look at me to know that I do Look at me to know that it's true
BRIDGE 
e|--------------------------------------------------------------------------------------| 
B|-------2------2-------------3-------3---------------2------2-----------2-----2--------| 
G|----2-------2-------2-----2-------2--------2------2------2-----2-----2-----2------2---|   
D|--------------------------------------------------------------------------------------| 
A|--4------4-------4------5-------5-------5------0------0------0-----4-----4------4-----| 
E|--------------------------------------------------------------------------------------| 

e|-------------------------------------------------------------------------------------------0-----0----0--| 
B|-------2------2-------------3-------3---------------2------2-----------2-----2---------------------------| 
G|----2-------2-------2-----2-------2--------2------2------2-----2-----2-----2------2------2-----2----2----|   
D|---------------------------------------------------------------------------------------------------------| 
A|--4------4-------4------5-------5-------5------0------0------0-----0-----0------0-----2------2-----2-----| 
E|---------------------------------------------------------------------------------------------------------| 
There you go I won't see you for a month of shows I should say Everything I have I would give away Chorus Don't take my word for it Just look at me to know that I love you Don't take my word for it Just look at me to know that I do Look at me to know that it's true
share this page

See Also: