E-Chords
Angelo Pierattini y las Calaveras Errantes
Key: Bb
Intro: 


   Bb          Dm             Gm 
------------|-------1-----|------------------------- 
------------|----------3--|------------------------- 
-------3----|----2--------|-------3-------3--------- 
-----3---3--|--0----------|----5-----5-------5------ 
--1---------|-------------|--5---------5------------ 
------------|-------------|------------------------- 
(x2) Bb Dm Gm Dulce hogar, extraño, amargo, ciego al centro voy Bb Dm Gm Feliz mi amigo Bb Dm Gm Miento, libre, intenso, ebrio, sobrio siempre soy Bb Dm Gm Un asesino Eb F Alma en un hilo Bb Dm Gm Lengua al filo del rencor Eb Y no vuelvas cuando muera dios Bb Dm Gm (x4)
Bb          Dm             Gm 
------------|-------1-----|------------------------- 
------------|----------3--|------------------------- 
-------3----|----2--------|-------3-------3--------- 
-----3---3--|--0----------|----5-----5-------5------ 
--1---------|-------------|--5---------5------------ 
------------|-------------|------------------------- 
Bb Dm Gm Tierno, miro, rezo, pierdo, subo al cielo soy Bb Dm Gm Sureño altiro Bb Dm Gm Caigo, rio, grito, sudo, fresco, salto soy Bb Dm Gm Un simple testigo Eb F Un asesino Bb Dm Gm Que liquida sin dolor Eb Y si vuelves cuando muera dios Bb Dm Gm (x4)
Bb          Dm             Gm 
------------|-------1-----|------------------------- 
------------|----------3--|------------------------- 
-------3----|----2--------|-------3-------3--------- 
-----3---3--|--0----------|----5-----5-------5------ 
--1---------|-------------|--5---------5------------ 
------------|-------------|------------------------- 
(x2)

roll up this ad to continue

share this page

See Also: