E-Chords
Angel Montoya

Quiero(Chords)

Angel Montoya

roll up this ad to continue

Key: F
F                 Dm         C 
Tal vez no sepa escribir canciones, 

       Ab                 C 
Sé que yo no soy nada romántico, 

       F                    C 
Yo no soy de los que mandan flores, 

      Ab          G   C 
Pero sí sé que me has conquistado, 

          Dm           C 
Pues me gustas, y te gusto, 

          Ab                      C 
Puedes notarlo cada vez que nos miramos? 



     F        Ab    C 
Tu sonrisa de niña coqueta, 

      A#                C 
Y tú forma de ser tan perfecta, 

         F                  C 
Es tan obvia mi reacción al verte, 

        A#      G        C 
Y creo que tú ya te diste cuenta, 

         Dm          C 
¿Yo te gusto?, me pregunto, 

        A#   Gm                 C 
Espero que estemos en la misma frecuencia? 


         A#                       C 
No soy experto en el amor te soy sincero, 

         F              Am      Dm 
Pero por ti me volvería todo un maestro, 

Am       A#                             C 
Quiero adueñarme de tus besos cien por ciento, 

          F       Am             Dm 
Ser guardaespaldas y cuidar tus sentimientos, 

           A#                      C 
Quiero que mi vida se gaste toda en ti, 

           A#  C                   F 
Quiero que nos amemos hasta un día morir. 


E|-08-06-05-05/13-12-12-12-12-------------10----------6- 
B|-10-08-06-06/15-13-13-13-13-------10-11----10-08-10--- 
G|----------------------------10-12--------------------- 
D|------------------------------------------------------ 
A|------------------------------------------------------ 
E|------------------------------------------------------ 

E|----10-------06----08-07-06- 
B|-11----10-08----05-10-09-08- 
G|---------------------------- 
D|---------------------------- 
A|---------------------------- 
E|---------------------------- 

E|-------------------15----15-15----15-15-15-15-------08----07----06----05 
B|-------10-10/11-11----17-------17-------17-17-10-10----09----08----06--- 
G|-10-12------------------------------------------------------------------ 
D|------------------------------------------------------------------------ 
A|------------------------------------------------------------------------ 
E|------------------------------------------------------------------------ 

E|------------------------- 
B|-06-05-03-------------03- 
G|----------05-03-02-00---- 
D|------------------------- 
A|------------------------- 
E|------------------------- 



F                           C 
Cuando se cruzan nuestras miradas, 

       A#     Gm        C 
Siento esa conexión en nosotros, 

        F              C 
Ya son horas de la madrugada, 

         A#     Dm   C 
Y aquí estoy repasando tus fotos, 

         Dm          C 
¿Yo te gusto?, me pregunto, 

        A#   Gm                 C 
Espero que estemos en la misma frecuencia? 


         A#                       C 
No soy experto en el amor te soy sincero, 

         F              Am      Dm 
Pero por ti me volvería todo un maestro, 

Am       A#                             C 
Quiero adueñarme de tus besos cien por ciento, 

          F       Am             Dm 
Ser guardaespaldas y cuidar tus sentimientos, 

           A#                      C 
Quiero que mi vida se gaste toda en ti, 

           A#  C                   F 
Quiero que nos amemos hasta un día morir. 
share this page

See Also: