E-Chords
Anderson Levi

Sonhos Guardados(Chords)

Anderson Levi

roll up this ad to continue

Key: Bm
Intro

Bm          Bm7M       Bm7         E 
E|-------2-----------2-----------2-----------0-----| 
A|-----3---3-------3---3-------3---3-------0---0---| 
D|---4-------4---3-------3---2-------2---1-------1-| 
G|-------------------------------------------------| 
B|-2-----------2-----------2-----------2-----------| 
E|-------------------------------------------------| 
      G           D         G           A 
E|-------3-----------2---------3-----------0-| 
A|-----3---3-------3---3-----3---3-------2-2-| 
D|---0-------0---2---------0-------0---2---2-| 
G|-------------0-----------------------------| 
B|-----------------------------------0-------| 
E|-0---------------------0-------------------| 
( Bm Bm7M Bm7 E G D G A ) Bm G D A É cedo pra dizer se é real ou induzido Bm G D A O tempo vai dizer na hora certa o caminho Em Pra acontecer D4 D A Aquilo que você intuiu ser Bm G D A Dúvidas mortais, diga-me agora quais são Bm G D A Os seus ideais, planos de um futuro em que Em Seremos só normais D4 D F# Representaremos algo a mais? Refrão G D Bm A Ambições e sonhos guardados G D Bm A Para além do tempo marcado G D Bm A Ou talvez no momento certo G D Bm A Que você não tenha esperado ( Bm BM7+ Bm7 E G D G A ) Bm G D A É cedo pra dizer se tanta expectativa Bm G D A Do que pode ser daqui pra frente em nossas vidas Em Há de acontecer D4 D F# Será que é isso o que queremos ser? Refrão G D Bm A Ambições e sonhos guardados G D Bm A Para além do tempo marcado G D Bm A Ou talvez no momento certo G D Bm A Que você não tenha esperado ( Bm Bm7M Bm7 E G D G A ) ( Bm Bm7M Bm7 E G D G A )
share this page

See Also: