E-Chords
Anathema

Untouchable Pt. 1(Chords)

Anathema

Key: Bm
Intro (Bm Bm/A G A) 

 
E|------------------------------------|------------------------------------|------------------------------------| 
B|---------3---------------3----------|---------3---------------3----------|---------3---------------3----------| 
G|-----4-------4---4---4-------4---4--|-----4-------4---4---4-------4---4--|-----4-------4---4---4-------4---4--| 
D|-------0-------0-------0-------0----|-------4-------4-------2-------0----|-------0-------0-------0-------0----| 
A|---2-------2-------2-------2--------|---0-------0-------0-------0--------|------------------------------------| 
E|------------------------------------|------------------------------------|---3-------3-------3-------3--------| 
 
E|------------------------------------| 
B|---------3---------------3----------| 
G|-----4-------4---4---4-------4---4--| 
D|-------0-------0-------2-------0----| 
A|-------------------0-------0--------| 
E|---3-------3------------------------| 
Bm Bm/A G Bm Bm/A G Bm/A And I feeeeeeel like I knew you before Bm Bm/A G Bm Bm/A G Bm/A And I guess that you can hear me through this song Bm Bm/A G And my love will never die Bm Bm/A G And my feelings will always shine Bm Bm/A G And my love will never die Bm Bm/A G And my feelings will always shine ( Bm Bm/A G A ) Bm Bm/A G Bm Bm/A G And i know that you just wanted me to belong to someone Bm Bm/A G Em D/F# G And i guess that now i'll just be moving on to someone Bm Bm/A G And my love will never die Bm Bm/A G And my feelings will always shine Bm Bm/A G And my love will never die Bm Bm/A G And my feelings will always shine Ponte: A G Ha aaaaa ha aaaaaa Bm F#m Ha aaaaaaaaaa aaaaa aaaa Em D/F# G Aa aaaaaaaaaa aaaaa aaaa A Bm F#m Em Ha aaaaa ha aaaaaa D/F# G I never betrayed your trust A Bm I never betrayed your faith F#m I'll never forsake your heart Em I'll never forget your face D/F# G There's a feeling that I can't describe A Bm There's a reason that I cannot hide F#m I've never seen a light that's so bright Em The light that shines behind your eyes D/F# G I never betrayed your trust A Bm I never betrayed your faith F#m I'll never forsake your heart Em I'll never forget your face D/F# G There's a feeling that I can't describe A Bm There's a reason that I cannot hide F#m I've never seen a light that's so bright The light that shines behind your Em D/F# G Bm F#m I can't see this life what you mean to me Em D/F# G When I dream, I dreamed of you Bm F#m Then I wake, tell me what could I do Em I had to let you go D/F# G To the setting sun A Bm I had to let you go F#m And find a way back home Em I had to let you go D/F# G To the setting sun A Bm I had to let you go F#m And find a way back home ( Em D/F# G A Bm F#m ) 3x ( Em D/F# G Bm )

roll up this ad to continue

share this page

See Also: