E-Chords
Ana Heloysa

Dois Castelos(Chords)

Ana Heloysa

Key: E
Intro E  A  B  A 

E|-------------------------------------------------| 
B|-------9-----------9-----------9-----------9-----| 
G|---9-------9---9-------9---9-------9---9-------9-| 
D|-------------------------------------------------| 
A|-------------------------0---0---0---0---0---0---| 
E|-0---0---0---0---0---0---------------------------| 

E|-------------------------------------------------| 
B|-------9-----------9-----------9-----------9-----| 
G|---9-------9---9-------9---9-------9---9-------9-| 
D|-------------------------------------------------| 
A|-------------------------0---0---0---0---0---0---| 
E|-9---9---9---9---9---9---------------------------| 
E Quando os pés fraquejam Os joelhos tremem A E vacila o caminhar B Vejo uma pedra Um porto seguro A Nele eu posso me apoiar E Quando os sentimentos São tão obscuros A Que eu não posso decifrar B Vejo um coração com um amor tão firme A E Nele eu posso confiar E Se uma tempestade vier destruir A O castelo de areia que eu sou C#m B A Tu és a rocha dentro de mim E Se a fúria do vento me despedaçar A Em vestígios de cinzas e dor C#m B A Tu és a rocha dentro de mim Am E eu vou seguir ( E F# ) E Quando os pés fraquejam Os joelhos tremem A E vacila o caminhar C#m Vejo uma pedra E Um porto seguro B C#m Nele eu posso me apoiar E Quando os sentimentos São tão obscuros A Que eu não posso decifrar C#m E Vejo um coração com um amor tão firme B C#m E Nele eu posso confiar G# C#m É imutável e não muda de lugar G# C#m Contrariando a lógica, me escolheu para morar G# Tu, castelo forte C#m F# E eu a me desmoronar F#m E Mas não veio para deixar tudo como está A C#m Veio para me moldar F#m E Mas não veio para deixar tudo como está A C#m B A Veio pra me salvar ( C#m B A ) ( C#m B A ) C#m B A B Pra me salvar E Se uma tempestade vier destruir A O castelo de areia que eu sou C#m B A Tu és a rocha dentro de mim E F# A Se a fúria do vento me despedaçar C#m B A Em vestígios de cinzas e dor C#m B A Tu és a rocha dentro de mim Am E eu vou seguir

roll up this ad to continue

share this page

See Also: