Ana Beatriz Nobre

De Louvor(Chords)

Ana Beatriz Nobre

Key: C

roll up this ad to continue

	        
                        F7M 
E|----1----------------------------------------------| 
B|---------------------------------------------------| 
G|--------2--------2--------------2------------------| 
D|-------------2-----------2-------------------------| 
A|---------------------1----------------1------------| 
E|---------------------------------------------0-----|
                        C7M 
E|---------------------------------------------------| 
B|----3----------------------------------------------| 
G|-----------2---------2-----------------2-----------| 
D|----------------0----------------0-----------------| 
A|--------------------------0---------------0--------| 
E|-------------------------------------------------0-|
Intro F7M C7M F7M C7M F7M Senhor eu quero te ver C7M Quero sentir tua presenša em mim F7M C7M Tua luz que me guia iluminando o meu o caminho F7M C7M Morreu por meus pecados e por isso sei que estou salvo F7M Meu pastor meu senhor C7M G Digno de louvor de louvor Am Eu adorarei eu adorarei C Te exaltarei te exaltarei G Te louvarei te louvarei Am Eu adorarei eu adorarei C Te exaltarei te exaltarei G Te louvarei Am Eu adorarei eu adorarei C Te exaltarei te exaltarei G F Te louvarei sempre ( C Am G ) ( C Am G )

See Also: