E-Chords
Amandinho

Bill Murray(Chords)

Amandinho

roll up this ad to continue

Key: E
E5       G#5         C#5 
   Chuva fina cai lá fora 
      A5              E5 
E eu aqui esperando você 
    G#5           C#5 
O silêncio é tão grande 
         A5         E5 
E o frio da minha tevê  

       G#5         C#5 
É mais um daqueles dias 
       A5              E5 
Que eu preciso me esconder 
         G#5             C#5 
Vejo o escuro e penso em tudo  
           E5 
Que eu vou me arrepender  

 
E|-0-0-0-0-0-0-0-0-0-0-0-0-0-0-0-0-0-0--XX-XX-| 
B|--0-0-0-0-2-2-2-2-4-4-4-4-5-5-5-5-5-5-XX-XX-| 
G|--------------------------------------XX-XX-| 
D|--------------------------------------XX-XX-| 
A|--------------------------------------XX-XX-| 
E|--------------------------------------XX-XX-| 
F#5 A5 E5 Faz tempo que você não vem F#5 A5 E5 Nem tudo pode acontecer F#5 A5 E5 Preciso lembrar quem você é F#5 A5 B5 E dizer eu não sou ninguém C#5 Nem tudo é normal Não me faça mal, meu amor
 
E|-----------------------| 
B|-----------------------| 
G|-----------------------| 
D|-----------------------| 
A|--------7--------------| 
E|-----5-----7-----------|
share this page

See Also: