E-Chords
Alvvays

The Agency Group(Chords)

Alvvays

Key: C
Intro: 2x's 

    (C) 
E ------------------------------------------ 
B ------------------------------------------ 
G ---------------9----9----9----9--10-9----- 
D ------------10---10---10---10------------- 
A --3~~~~~~~~~~~---------------------------- 
E ------------------------------------------ 

E -------------------------------- 
B -------------------------------- 
G ------9----9----9----9---------- 
D ---10---10---10---10-------10--- 
A ~~~~-------------------12------- 
E -------------------------------- 
Verse: C Fmaj7 F Parked outside of the agenc-y C Fmaj7 F Wondering if you can sneak a-way with me C Am I'll admit, I've been losing sleep F Em Rifling through your toxicology
Dm G C Em Am When you whisper you don't think of me that waaaaaaaaay Dm G C Em Am When I mention you don't mean that much to meeeeeeeee C Em Am To meeeeeeeeeee
Verse: C Fmaj7 F An outcast of modern societ-y C Em G Suffering from a case of sobriety C Am Shortcomings, well, you can take your pick F Em When you are catering to one of your nervous tics
Dm G C Em Am When you whisper you don't think of me that waaaaaaaaay Dm G C Em Am When I mention you don't mean that much to meeeeeeeee C Em Am To meeeeeeeeeee C Em Am To meeeeeeeeeee
Instrumental: Dm G C Em Am Dm G C Em Am C Em Am C Em Am C Em Am C Em Am THIS IS THE SOLO I WORKED OUT TO ACCOMPANY THE CHORDS ABOVE.
E -------------------------------------- 
B -------------------------------------- 
G --9br--7-5-4-2-2/4-5--5/7-9--5/7-9---- 
D -----------------------------------7-- 
A -------------------------------------- 
E -------------------------------------- 

E -------------------------------------- 
B -------------------------------------- 
G --9br--7-5-4-2-2/4-5--5/7-9--5/7-9---- 
D -----------------------------------7-- 
A -------------------------------------- 
E -------------------------------------- 

E --------------------------------------- 
B --------------------------------------- 
G ---5-7-9---5-7-9-----5-7-9---5-7-9-----   PLAY 4x's 
D ------------------------------------7-- 
A --------------------------------------- 
E --------------------------------------- 
BREAK: Dm Em Dm G You know that it won't take much longer before it's wrong Dm Em F G You know that it won't take much longer now that I'll be gone G It's gone, G The sun G Is gone
Dm G C Em Am When you whisper you don't think of me that waaaaaaaaay Dm G C Em Am When I mention you don't mean that much to meeeeeeeee
Dm G C Em Am When you whisper you don't think of me that waaaaaaaaay Dm G C Em Am When I mention you don't mean that much to meeeeeeeee
OUTRO: C Em Am To meeeeeeeeeee C Em Am To meeeeeeeeeee C Em Am To meeeeeeeeeee C Em Am To meeeeeeeeeee C Em Am To meeeeeeeeeee C Em Am To meeeeeeeeeee C Em Am F C To meeeeeeeeeee

roll up this ad to continue

share this page

See Also: