E-Chords
Alvaro e Daniel

Meu Sentimento(Chords)

Alvaro e Daniel

roll up this ad to continue

Key: E
		 
Intro: E B A E B A B  2x 

E|------------------------------ 
B|------------------------------ 
G|------------------------------ 
D|--2-4-6-4-2-4-4--------------- 
A|-2---------------------------- 
E|------------------------------ 


E|------------------------------ 
B|------------------------------ 
G|------------------------------ 
D|--2-4-6-4-2-2----------------- 
A|-2------------4-2------------- 
E|------------------------------ 
E B Ei, pare um pouco e olha pra mim A Já faz tempo que eu te quero assim F#m B Só não sabia como te dizer E B Ei, acho até que você já notou A Que o meu coração já disparou F#m B Bb Eu ensaiei e agora não sai nada A Minhas mãos suadas de emoção E Você na minha frente C#m F#m O meu sentimento é tão transparente A B E E7 Não precisam mais palavras pra dizer A E Pode até não ser a hora certa, mas to no desespero C#m F#m O que eu digo agora é tão verdadeiro A B E B Eu coloco minha vida em suas mãos
E Sou eu quem manda flores sem nem um cartão B E grita seu nome em frente ao seu portão A F#m B Toda madrugada eu saio de casa louco de paixão E E esse desespero é o que me consome B Mais que um amigo eu quero ser seu homem A F#m Eu não posso mais viver assim B E Com você tão perto, mas longe de mim
share this page

See Also: