E-Chords
Alquimia

Vulnerable(Chords)

Alquimia

roll up this ad to continue

Key: Dm
Intro: 

E-1-0h1----1-0h1---------------------- 
B-------3--------1--1-1----1---1-1-3-- 
G------------------------2---2-------- x2 
D------------------------------------- 
A------------------------------------- 
E------------------------------------- 

E------------------------------------- 
B------------------------------------- 
G-----------------------------10h12--- x2 
D--7---7-7-7-7-7------7-7-7----------- 
A--5---5-8-5-8-5-5-5--5-8-5----------- 
E------------------------------------- 
estrofa: Dm C ¿Como podre evitar vagar por estos días amargos? Dm ¿Como podre abrazarte en cada sueño?. C Aunque no sea real. PRE CORO A# C Dm Desde el fondo del mar A# C Dm a la más alta montaña, A# C Dm desde el primer rayo del Sol A# C A# a la noche estrellada.
Dm C Desperté en la oscuridad, Gm Dm en ausencia de tu luz. F C A# y entre lágrimas grité tu nombre. Dm C Gm Dm Si pudiera volar al lugar donde estas tú, F C A# no quisiera sentirme otra vez tan distante... Dm ¡Tan vulnerable!
INTRO 


E-1-0h1----1-0h1---------------------- 
B-------3--------1--1-1----1---1-1-3-- 
G------------------------2---2-------- x2 
D------------------------------------- 
A------------------------------------- 
E------------------------------------- 

E------------------------------------- 
B------------------------------------- 
G-----------------------------10h12--- x2 
D--7---7-7-7-7-7------7-7-7----------- 
A--5---5-8-5-8-5-5-5--5-8-5----------- 
E------------------------------------- 
ESTROFA Dm D ¿Como podre sentirte aunque sé que ya te has marchado? Dm D ¿Como podrás perdonarme por no ser capaz de ser feliz? PRE CORO A# C Dm Desde las sombras de mi ser A# C Dm hasta la luz de tu mirada, A# C Dm desde estos versos que ya sé A# C Dm que no sirven de nada.
Dm C Desperté en la oscuridad, Gm Dm en ausencia de tu luz. F C A# y entre lágrimas grité tu nombre. Dm C Gm Dm Si pudiera volar al lugar donde estas tú, F C A# no quisiera sentirme otra vez tan distante... Dm Tan vulnerable C Dm tan distante... C Em TAN DISTANTE!!!!!
SOLO (SE ACOMPAÑA CON LOS ACORDES DEL CORO SIBUDO UN TONO) Em,D,Am,Em,G,D,C
Em D Desperté en la oscuridad, Am Em en ausencia de tu luz. G D C y entre lágrimas grité tu nombre. Em D Am Em Si pudiera volar al lugar donde estas tú, G D C no quisiera sentirme otra vez tan distante... Em ¡Tan vulnerable!
E------------------------------------- 
B------------------------------------- 
G-----------------------------5h7----- x2 
D--2---2-2-2-2-2------2-2-2----------- 
A--0---0-3-0-3-0-0-0--0-3-0----------- 
E-------------------------------------
share this page

See Also: