E-Chords
Almafuerte

Tu ers su seguridad(Chords)

Almafuerte

Key: E
 

 
INTRO: 
 
e-|-------------------------------------------------------------|- 
B-|-------------------------------------------------------------|- 
G-|-------------------------------------------------------------|- 
D-|-----12-11-12-------12-------------12-11-12------------------|- 
A-|-----10--9-10-------10-12-12-------10--9-10------------2-----|- 
E-|-0-0------------0-0----10-10---0-0------------0--0-2-3---3-2-|- 
                                                                               
 
-|------------------------------------------------------------------ 
-|------------------------------------------------------------------ 
-|------------------------------------------------------------------ 
-|-----12-11-12-------12-------------12-11-12----------------------- 
-|-----10--9-10-------10-12-12-------10--9-10------------2------3--- 
-|-0-0------------0-0----10-10---0-0------------0--0-2-3---3-2------ 
                                                                               
 
----------------------------|-----------------------------------|- 
----------------------------|-----------------------------------|- 
----------------------------|-----------------------------------|- 
----------------------------|----5-7----------------------------|- 
-------2--------------2-----|-2--3-5--5-4-2--5-7--------2-------|- 
-0-2-3---3-2----0-2-3---3-2-|-0-------3-2-0--3-5--0-2-3---3-2-0-|-
E5 C5 D5 G5 riff 1 Ajeno al tiempo, sé que quisieras seguir. E5 C5 Pero mil voces te ahogan para que D5 E5 riff 2 formes la cola del seguro porvenir. Por eso te vi escapando en las horas sin sol. De las miradas oscuras que aprobaron las torturas del fugado represor. A5 B5 Son quienes no alcanzan la paz C5 D5 por sus viejos miedos. B5 C5 D5 Y hoy esperan de vos seguridad. Que no te demore el mundo, poniéndote el antifaz. y buscando acomodarte en medio del derrumbe de su decadencia. Pues la enfermante histeria, que hay a tu alrededor. Tratará de agotarte para que formes parte de su digestión. Y en su falso amor padecen de pasión. Antes de arrepentirse de su error. E5 C5 D5 E5 Mata el miedo que guarda el animal, limpia el cuerpo pues dentro de él estás. A5 B5 C5 D5 Si buscas libertad, ya no andés por fuera. B5 C5 D5 Hombre de mil nombres nace ya.
Riff 1 
-|-------------|- 
-|-------------|- 
-|-------------|- 
-|-------------|- 
-|-5--4-5--4-2-|- 
-|-3--2-3--2-0-|- 
                                                                               
Riff 2 
-|-----------|- 
-|-----------|- 
-|-----------|- 
-|-------5---|- 
-|-----5---7-|- 
-|-5-7-------|-
Email: [email protected]

roll up this ad to continue

share this page

See Also: