E-Chords
Almafuerte

Toro Y Pampa(Chords)

Almafuerte

Key: E5
Bueno, el pibe ke la transcribio antes se ekivoco con los acordes.. 
las intros la primera parte esta bien me parece, no me fije bien, 
y la segunda parte esta bien, la corregi, igual se puede hacer 
mas facil en la pentatonica. 

aclaracion: donde dice E5* es una octava arriba: 
e|----- 
B|----- 
G|--9-- 
D|--9-- 
A|--7-- 
E|----- 


Intro 1ºparte 
e|-------0-------0---0-----------2------------- 
B|---------4-2-4-------------4-5---5-4-5p4-2--- 
G|-----------------4-------4-----------------4- 
D|-----2-----------------4--------------------- 
A|---2-----------------2----------------------- 
E|-0------------------------------------------- 

cont. 
------0-------0---0-----------2-| 
--------4-2-4-------------4-5-0-| 
----------------4-------2-------| 
----2-----------------4---------| 
--2-----------------2-----------| 
-0------------------------------| 

Intro 2ºparte  E5  C#5 
e|-----6s7-9---------6s7-9-----------------6s7-9----- 
B|-0-5-------8^9-0-5-------8^9-7-5-7-0-0-5-------8^9- 
G|--------------------------------------------------- 

cont. 
-----6s7-9-11^12-11-9----9s4-| 
-0-5------------------12-----| 
-----------------------------|
E5 A5 E5 Con ?Toro y pampa? E5* E5 armé la impronta, A5 E5 C#5 iluminando así el costado imaginario B5 del encuentro. E5 A5 E5 Vengo rockeando E5* E5 desde hace tiempo, A5 E5 C#5 soñando siempre una canción para animarte B5 y darte aliento. B5 C#5 La melodía quiere llevar B5 C#5 lo bueno y lindo de estar contento. e|-----6s7-9---------6s7-9-11^12-11-9----9----| sobre E5 C#5 B|-0-5-------8^9-0-5------------------12---12-| E5 A5 E5 Un buen descanso E5* E5 un plato e´sopa A5 E5 C#5 y el abrazo fraternal de un amigo leal a voz B5 te están faltando. E5 A5 E5 Para que de un salto E5* E5 dejes la falopa A5 E5 C#5 y el emputecido berretín de andar limándote B5 en la caja negra. B5 C#5 Día domingo lejos de la ciudad B5 C#5 bajo el sol compartiendo entre amigos D5 A5 B5 carne azada, pan, agua y vino, toro y pampa es.
Solo parte1  E5 C#5: 
e|------------------7-------------------------7--9h7h9- 
B|-----------9--10-----9---------------9--10----------- 
G|--------9-------------------------9------------------ 
D|-----9-------------------------9--------------------- 
A|--7-------------------------7------------------------ 
E|-----------------------------------------------------
(el resto del solo kedo por sacar) E5 A5 E5 Hijos del brazo E5* E5 nunca torcido A5 E5 C#5 de donde nace esa intención tan tonta de andar B5 tele-vareando. E5 A5 E5 Pibin del barrio E5* E5 donde nacido A5 E5 C#5 Mira a tu lado, todos, todos nos fuimos ya B5 vos no te quedes. B5 C#5 Día domingo lejos de la ciudad B5 C#5 bajo el sol compartiendo entre amigos D5 A5 B5 carne azada, pan, agua y vino, toro y pampa es. Final como 2ºintro...

roll up this ad to continue

share this page

See Also: