E-Chords
Almafuerte

Sentir indiano(Chords)

Almafuerte

Key: D
 
INTRO: 
    Dm 
e-|--------------|-------------------|----------------------------|---- 
B-|--------------|-------------------|----------------------------|---- 
G-|--------------|-------------------|----------------------------|---- 
D-|-7-7------3---|-------------------|-5-----3----------3---3h5---|---- 
A-|-5-5--3-5---5-|-----3-3---3-----3-|-3-3h5---5--5-3h5---5-----5-|---- 
E-|--------------|-3h5-----5---5-3-1-|----------------------------|---- 
                                                                               
 
-----------------------|----|- 
-----------------------|----|- 
-----------------------|----|- 
-------3---------------|-x4-|- 
---3h5---5---5-3-------|----|- 
-----------------5-3-1-|----|-
D5 F5 C5 D5 Sentir indiano en mi corazon, cancion ha parido. D5 F5 C5 D5 Para el que siente o quiere sentir, orgullo nativo. F5 C5 Del malinche es la maldicion, G5 D5 del huinca el gualicho. F5 C5 Del Dios blanco el terrorismo, G5 D5 Satanas y Cristo. Madre tierra, padre sol. Ni demonio, ni señor. Pareciera mas coherente, adorarlos nuevamente. Que el engaño santurron de los muertos vivos. Que este rumbo destructivo, o el miedo al castigo. Bb5 F5 A5 D5 Riff 1 Sentimiento indiano,orgullo nativo. Han parido este canto en el corazon mio. Que exaltar tu origen aborigen intenta. Sangre nueva de la raza que aun ser libre sueña. Madre tierra, padre sol. Dioses vivos, hoy por hoy. Grandes testigos silentes, de la humanidad inconsciente. y su afan devorador de infierno y suplicio. Del progreso bendecido, por Dioses traidos. Sentimiento indiano,orgullo nativo. Han parido este canto en el corazon mio. Que exaltar tu origen aborigen intenta. Sangre nueva de la raza que aun ser libre sueña. Del malinche es la maldicion, del huinca el gualicho. Del Dios blanco el terrorismo, Satanas y Cristo. Sentimiento indiano, orgullo nativo. Han parido este canto en el corazon mio. Que exaltar tu origen aborigen intenta. Sangre nueva de la raza que aun ser libre sueña.
Riff 1: 
e-|---------------|- 
B-|---------------|- 
G-|---------------|- 
D-|---------------|- 
A-|-5-7-8-7-5-----|- 
E-|-----------8-6-|-
esta tab va dedicada al mas piton de todos el negro cañete

roll up this ad to continue

share this page

See Also: