E-Chords
Almafuerte

Mi Credo(Chords)

Almafuerte

Key: Bm
Intro: 


Riff 1 

E ||--7-----7-----7-----7-----|--2-----2-----2-----2-----|| 
B ||--0--0--0--0--0--0--0--0--|-----0-----0-----0-----0--|| 
G ||--------------------------|--4-----4-----4-----4-----|| 
D ||--------------------------|--4-----4-----4-----4-----|| 
A ||--------------------------|--------------------------|| 
E ||--------------------------|--------------------------|| 


E ||--3-----3-----3-----3-----|--2-----2-----2-----2-----|| 
B ||-----0-----0-----0-----0--|-----0-----0-----0-----0--|| 
G ||--4-----4-----4-----4-----|--4-----4-----4-----4-----|| 
D ||--5-----5-----5-----5-----|--4-----4-----4-----4-----|| 
A ||--------------------------|--------------------------|| 
E ||--------------------------|--------------------------|| 


E ||--7-----7-----7-----7-----|--7-----7-----7-----7-----|| 
B ||--0--0--0--0--0--0--0--0--|--0--0--0--0--0--0--0--0--|| 
G ||--------------------------|--------------------------|| 
D ||--------------------------|--------------------------|| 
A ||--------------------------|--------------------------|| 
E ||--------------------------|--------------------------|| 



Riff 2 

      Bm7          A/C#             G           Em9 
E ||-----------------------------|---------------------------|| 
B ||--3-----3--2p-0-2-----2------|--0-----0------------------|| 
G ||--2--2--2-------2--2--2--4-2-|--0--0--0--2-0----0--------|| 
D ||-----------------------------|--0-----0------4-----2--0--|| 
A ||--2-----2-------4-----4------|---------------2-----------|| 
E ||-----------------------------|--3-----3------0-----------|| 


      Bm7          A/C#             G 
E ||-----------------------------|------------3--3--3-3-3--|| 
B ||--3-----3--2p-0-2-----2------|--0-----0---3--3--3-3-3--|| 
G ||--2--2--2-------2--2--2--4-2-|--0--0--0---0--0--0-0-0--|| 
D ||-----------------------------|--0-----0---0--0--0-0-0--|| 
A ||--2-----2-------4-----4------|-------------------------|| 
E ||-----------------------------|--3-----3----------------|| 

Verso: Bm A/C# G Em De ayer venimos, guitarra y voz, Bm A/C# G Em soñando siempre la mejor canción. Bm A/C# G Em Estoy creído, difundirán, Bm A/C# G radios A.M. de la ciudad central. Bm A/C# G Em Creí que iba a poder, creí en la verdad Bm A/C# G Em creí de fijo que no me iban a fallar. Bm A/C# G Em Lo que la gente cree, yo creí también, Bm A/C# G creí en todo lo que hay que creer. Estribillo: D G Creí en el amor, creí en la amistad, A D creí que fuerza no me iba a faltar. Bm A/C# G D/F# Em De todo lo creído, me creí saber A que todo es creer o no creer. Verso: Dm C A# Gm Creí que lo prestado me iban a devolver, Dm C A# Gm creyendo en ella, creyendo en él. Dm C A# Gm Vengo creyendo en el Dios vivo, Dm C A# Gm que tus hijos son iguales a los míos. A E F# O no? Por Dios.
Riff 3 

E ||---10-9-7-6------------|| 
B ||------------8-7--------|| 
G ||------6-4-3-----9-7-6--|| 
D ||---12-------5-4--------|| 
A ||----------------7-5-4--|| 
E ||-----------------------|| 

Estrbillo: D G A D Creí también poder folklorear, un parecer bien nacional. Bm A/C# G D/F# Em A En la tarde de mis cosas, añape´e Dicepolin, ya sin más. Bm A/C# G D/F# Em He creído en tantas cosas, ay, ay, ay de mí, A me cache en diez, qué gil que fui. Bm7 A/C# G Oh, oh, oh. Oh, oh, oh. Bm7 A/C# G Oh, oh, oh. Oh, oh, oh. Bm7 A/C# G Oh, oh, oh. Oh, oh, oh. Bm7 A/C# G Oh, oh, oh. Oh, oh, oh.

roll up this ad to continue

share this page

See Also: