E-Chords
Almafuerte

Mano brava(Chords)

Almafuerte

Key: E
Email: [email protected] 
 
INTRO: 
e-|-----------|-----------------|-----------|-------------|- 
B-|-----------|-----------------|-----------|-------------|- 
G-|-----------|-----------------|-----------|-------------|- 
D-|-----------|-----------------|-----------|-------------|- 
A-|-5h7-7-5h7-|-----------------|-5h7-7-5h7-|-3-2-----2-1-|- 
E-|-----------|-0h3-0h3h5-6-5-3-|-0---------|-----3-0-----|- 
E5 B5 G5 F5 Con adorno de buen escolazo, E5 B5 G5 F5 en tus manos dejo flor de espadas, E5 (con riff de la intro) para que tengas. Sepa el boncha que la va de liso. Yo soy dueño de la mano brava. B5 A5 Dioses del abismo, B5 A5 guardarán mi marca. E5 C5 Para sí, o para aquel. C#5 C5 F5 Como vos y como nosotros tres. E5 C5 Que viajando en el sonido, C#5 C5 F5 nos soñamos ayer y lo cumplimos hoy.
FINAL: 
-|---------|------------------------|- 
-|---------|------------------------|- 
-|---------|------------------------|- 
-|---5-6-5-|------------------------|- 
-|-2-3-4-3-|-2-0--------------0-3-2-|- 
-|-0-------|-----3--0-1---1-3-----0-|- 

roll up this ad to continue

share this page

See Also: