E-Chords
Almafuerte

Homenaje(Chords)

Almafuerte

INTRO 

|------------------------------------------------------------------------| 
|------------------------------------------------------------------------| 
|-----------------0---------0-----0-----------------0----------0-----0---| 
|-------0---2---2---------2-----4---------0---2---2----------------------| 
|-0h2h3---0---0-----0h2h3-----5-----0h2h3---0---0------------2-----5-----| 
|------------------------------------------------------3p0-1-----3-------| 


BASE 

|----------------------------|--------------------------------| 
|----------------------------|--------------------------------| 
|-5-4-3-2-----4h5--5h7p5h7---|-5-4-3-2-----4h5--7b8b7--7p5----| 
|-5-4-3-2-----4h5--5h7p5h7---|-5-4-3-2-----4h5--7b8b7------7--| 
|---------0-0----------------|---------0-0--------------------| 
|----------------------------|--------------------------------| 


|----------------------------|--------------------------------| 
|----------------------------|--------------------------------| 
|-5-4-3-2-----4h5--5h7p5h7---|-5-4-3-2-------5--7-------------| 
|-5-4-3-2-----4h5--5h7p5h7---|-5-4-3-2-------5--7-------------| 
|---------0-0----------------|----------3h5--3--5-------------| 
|----------------------------|--------------------------------| 


PUENTE 

|-------------------------------------| 
|-------------------------------------| 
|------------------------2------------| 
|-3------------------2---2------------| 
|-3------------------2---0------------| 
|-1------------------0----------------| 

|----------------------------------------| 
|----3-------------------5---------------| 
|----5-------------------7---------------| 
|-5--5----------------7--7---------------| 
|-5--3----------------7--5---------------| 
|-3-------------------5------------------| 


CORTE 

|-------------------------| 
|-------------------------| 
|-------------------2-----| 
|-3--5--2----3--5-3-2-----| 
|-3--5--2----3--5-3-0-----| 
|-1--3--0----1--3-1-------| 


_________________________________________________________________ 

INTRO x 4 


   Ñandubayzal en entre ríos, gualeguaychú suburbano. 

|----------------------------|--------------------------------| 
|----------------------------|--------------------------------| 
|-5-4-3-2-----4h5--5h7p5h7---|-5-4-3-2-----4h5--7b8b7--7p5----| 
|-5-4-3-2-----4h5--5h7p5h7---|-5-4-3-2-----4h5--7b8b7------7--| 
|---------0-0----------------|---------0-0--------------------| 
|----------------------------|--------------------------------| 


 donde mi vagar halló destino, maestro amigo y hermano; sí. 

|----------------------------|--------------------------------| 
|----------------------------|--------------------------------| 
|-5-4-3-2-----4h5--5h7p5h7---|-5-4-3-2-------5--7-------------| 
|-5-4-3-2-----4h5--5h7p5h7---|-5-4-3-2-------5--7-------------| 
|---------0-0----------------|----------3h5--3--5-------------| 
|----------------------------|--------------------------------| 


INTRO x 1 


BASE 

Rancho plantau junto al camino,que va hacia el río curveando. 
pasión de santos ví un gaucho vivo, y me arrimé a saludarlo. 



    Mucha riqueza adquirí al conocerle 
|-------------------------------------| 
|-------------------------------------| 
|------------------------2------------| 
|-3------------------2---2------------| 
|-3------------------2---0------------| 
|-1------------------0----------------| 

       graves decires de aguda intuición. 

|----------------------------------------| 
|----3-------------------5---------------| 
|----5-------------------7---------------| 
|-5--5----------------7--7---------------| 
|-5--3----------------7--5---------------| 
|-3-------------------5------------------| 


como no cantarle a la honra de un jinete 
exponente vivo de la tradición 


INTRO  (eslabón perdido...) {al final de esta INTRO marca 
                             los últimos 2 tonos FA5 y sol5} 


BASE 

Si te mandas por ser quien siente, que no te gane el espanto. 
muchos se van a otros países,buscando un gurú o un algo. 



PUENTE 

Si lo encontrás quisiera le recuerdes. 
que yo le canto con toda mi voz. 
y esta guitarra soleando pretende 
decirte amigo soy contigo  <<<======= {al final de este puente deja 
                            la guitarra sonando en el último tono} 


Augusto Romero voy a vos. 


CORTE 


ACA HACE UN TREMENDO SOLO... 


INTRO x 2  ===>>> {En el en vivo esta intro la hace con 
                       'PALM MUTE' (notas apagadas)} 


PUENTE 

Si lo encontrás quisiera le recuerdes. 
que yo le canto con toda mi voz. 
y es la guitarra del TANO que pretende 
decirte amigo, voy a vos. 

PUENTE 

Mucha riqueza adquirí al conocerle 
graves decires de aguda intuición. 
como no cantarle a la honra de un jinete 
exponente vivo de la tradición  <<<======{al final de este puente deja 
                                la guitarra sonando en el último tono} 
(eslabón perdido...) 

INTRO x 4    =====>>>> {En el en vivo lo hace con la intro y punteando 
                      un poco, en a fondo blanco marca los tonos} 

eslabón perdido. 
ñandubayzal 
en entre ríos 
gualeguaychú suburbano. 


CORTE 


________________________________________________________________________

roll up this ad to continue

share this page

See Also: