E-Chords
Almafuerte

Desencuentro(Chords)

Almafuerte

Key: C
  
 
NOTA: La introducción está incompleta 
 
INTRO: 
e-|----------------------------|-----------------------------|---------|------- 
B-|----------------------------|-----------------------------|---------|------- 
G-|----------------------------|-----------------------------|---------|------- 
D-|-5--5-3h5p3-----------------|---5-3h5p3-------------------|---------|------- 
A-|-3---------6p5--6p5p3-5p3p2-|-5---------6p4--4p3p1--3p1p0-|-3-1-----|------- 
E-|----------------------------|-3---------------------------|-----4-3-|------- 
                                                                               
 
-|-----------------|---------------|-----------|- 
-|-----------------|---------------|-8-6-4-3-1-|- 
-|-----------------|---------------|-----------|- 
-|-----------------|---------------|-----------|- 
-|---6p5-3-6p5p3h3-|---------------|-----------|- 
-|-3---------------|---------------|-----------|-
C5 B5 Bb5 Estas desorientado y no sabes, F5 Bb5 Eb5 que bondi hay que tomar, para seguir. C5 Y en triste desencuentro con la fe, G5 C5 G5 C5 queres cruzar el mar, y no podes.
Riff 1: 
e-|-----------------------|- 
B-|-----------------------|- 
G-|-5-5---4-4---3-3---2-2-|- 
D-|-----------------------|- 
A-|-3-3---3-3---3-3---3-3-|- 
E-|-----------------------|-
C5 (con riff 1) La araña que salvaste te pico. Que vas a hacer. F5 Bb5 Eb5 Y el hombre que ayudaste te hizo mal,dale que va. C5 F5 Y todo un carnaval, gritando pisoteo, G5 C5 la mano fraternal que Dios te dio. F5 Bb5 Eb5 Que desencuentro.Si hasta Dios esta lejano. C5 G5 Sangras por dentro. C5 Todo es cuento,todo es fin. F5 Si en un corso a contramano, G5 C5 un grupi trampeo a Jesus. F5 No te fies ni de tu hermano, G5 C5 se te cuelgan de la cruz. Quisiste con ternura y el amor, te devoro de atras, hasta el riñón. Se rieron de tu abrazo y ahi nomas, te hundieron con rencor, todo el arpon. Amargo desencuentro,porque ves que es al reves. Creiste en la honradez y en la moral,que estupidez. Por eso en tu total fracaso de vivir, ni el tiro del final te va a salir. C5 F5 Por eso en tu total fracaso de vivir, G5 C5 ni el tiro del final te va a salir. Final: Riff 1 G5 - C5 by: Email: [email protected]

roll up this ad to continue

share this page

See Also: