E-Chords
Almafuerte

Del mas alla(Chords)

Almafuerte

Key: G
 
intro: 
e-|------------------|----------------|----|----------|- 
B-|------------------|----------------|----|----------|- 
G-|------------------|----------------|----|----------|- 
D-|------------------|----------------|-x2-|----3-2-8-|- 
A-|--------5-4-------|-3-2------0-1-2-|----|-5--1-0-6-|- 
E-|-0-2-3------5-3-0-|-----3-0--------|----|-3--------|- 
                                                                               
Riff 1: 
e-|-----------------|-----------|-----------------|---------|----| 
B-|-----------------|-----------|-----------------|---------|----| 
G-|-------7---------|-----------|-------7---------|---------|----| 
D-|---9-7---9-------|-----------|---9-7---9-------|-5-7-----|-x2-| 
A-|-7----------10-7-|-10-9--5-2-|-7----------10-7-|-----5-7-|----| 
E-|-----------------|-----------|-----------------|---------|----| 
G5 D5 A5 Yo tengo amigos en el más allá esperándome. Desencarnados espíritus graves mentores de mi expresión. C5 D5 Amigos míos que se fueron ya. C5 D5 Y otros que vivos no los recuerdo, C5 D5 son lo que intuyo y visten mi E5 cantar con pasión. Riff 1 Fui como ellos en el más allá, y ellos como yo hoy. Un ida y vuelta del reencarne por cantar verdades para siempre. No hay exorcismo que cure mi mal. Es puro karma que lavar quiero. Canales que abren los vicios intuición. Intro Muy justo es que quien tema, tiemble. La conciencia es Dios. Y es para quienes se opongan a esto, que cantándolo estoy mismo. No hay exorcismo que cure mi mal. Es puro karma que lavar quiero. Canales que abren los vicios intuición. Amigos míos que se fueron ya. Y otros que vivos no los recuerdo, son lo que intuyo y visten mi cantar con pasión. Email: [email protected]

roll up this ad to continue

share this page

See Also: