E-Chords
Almafuerte

Debes Saberlo(Chords)

Almafuerte

Key: Em
para vos enano querido un tema de almafuerte mi amiguito...se! 

Intro 

e---------------------------------------------------------- 
B---------------------------------------------------------- 
G---------------------------------------------------------- 
D--2---2--5--4--0--2------2-------------------------------- 
A--2-----------------2----2-------------------------------- 
E--0----------------------0----6---5---0--3--5--3-----------
Em B-G A-B Me quede sin nada B A - G De tanto por decirte G A tan solo soy uno mas Em Que junto a vos resiste hoy Em B-G A-B Abandonado B A - G Arreglo De toda espiración G A Estoy perdido Em Estoy desecho G D# G F ? D# - D - C Sin poder esquivar el poder ajeno G D# G D Sin creer haber sido jamás todo lo que soy Em Para vos Intro Em B-G A-B Solo es un mal día B A - G Repite mi amor G A Yo despunto el vicio Em Buscando ala intuición Em B-G A-B Todo es vacio B A ? G Arreglo De jubilos espumantes G A Todo es violencia Em Todo apunta al desmadre G D# G F ? D# - D - C Si no hay amor mejor bajate G D# G F ? D# - D - C Si no hay amor nunaca abra sueños G D# G F ? D# - D - C Si no hay amor se muere antes G D# C Si no hay amor se pierde siempre Riff 1 Debes saberlo Si no hay amor se pierde siempre Si no hay amor? no hay razon Solo G D# G F ? D# - D - C Si no hay amor mejor bajate G D# G F ? D# - D - C Si no hay amor nunaca abra sueños G D# G F ? D# - D - C Si no hay amor se muere antes G D# C Si no hay amor se pierde siempre
Riff 1 
e---3------------3--------------------- 
B---3---5---6----3------5--6--6-------- 
G---0---5---5----0------5--5--5-------- 
D---0------------0--------------------- 
A-------------------------------------- 
E-------------------------------------- 

Arreglo 
e/----------------------------- 
B/--8-7-5----------------------
G/---------7-6-4----------------
D/---------------7---5---------
A/-------------------5---------
E/-------------------3---------

roll up this ad to continue

share this page

See Also: