E-Chords
Almafuerte

Convide Rutero(Chords)

Almafuerte

Key: F#m
Acá tienen mi transcripción de este temazo de ALMAFUERTE 
Para que les sea mas fácil, escuchen la versión del 'en vivo OBRAS 2000', que tiene una 
sola guitarra (yo lo saqué de ahí) 

intro: 

     F#m  E  A                                    F#m  E  A 
e:-(-2----0--0-------------------------------)----2----0--0--------0--------------------- 
B:-(-2----0--2--------2-3-2------------2-----)----2----0--2------2----------------------- 
G:-(-2----1--2----2-4-------4------2-4---4---)x2--2----1--2----2------------------------- 
D:-(-4----2--2--4--------------2-4-----------)----4----2--2--2--------------------------- 
A:-(-4----2--0-------------------------------)----4----2--0------------------------------ 
E:-(-2----0----------------------------------)----2----0---------------------------------
F#m E D Bm Escucho a las rutas llamarme Nota: luego del D en 'escucho a las F#m E D e:-5-4-2-0-- rutas llamarme' y 'pedal a fondo...' son voces graves que me invitan a rodar antes del Bm hace un fill así Bm G F#m E Fill 1= A:-5-4-2-- dicen extrañar mi errante andar También antes del G en 'dicen D Bm E extrañar...' hace otro así pedal a fondo... tierra adentro Fill 2= E:-0-2-3-- Sueños invaden mi descanso con su carga de convide rutero atravesar los amplios llanos por llegar a ningún lugar, como hace el viento F#m E A D F#m E Quieren volverme a ver <--- Acá la guitarra hace como el intro, pero F#m E A D Fa#m E le agrega otra parte más (Fill 3) es por eso que están llamándome
Fill 3 

e:---2-4-5-4-2-----------------------------------|------------9----12-9-----------9-------- 
B:-3-----------5-2---2-3-----------------2-------|----9-10-12---10------12-9----9---10-12-- 
G:-----------------4-----4--4(5)-2---2-4---4-2---|-11------------------------11------------ 
D:---------------------------------4-------------|----------------------------------------- 
A:-----------------------------------------------|----------------------------------------- 
E:-----------------------------------------------|-----------------------------------------
F#m F#m/E D F#m/C# Bm A C#m7 Sin rumbo fijo hacia adelante voy, andar andando, solo andando por andar llevar mi vida acelerando sin pensar en regresar o en detenerme Escucho a las rutas llamarme y su motivo viste mi decir sincero el que afirmado será por quienes por ahí me vieron pasar, o por aquellos que andando me han de ver <------Igual que 'Quieren volverme a ver...' si consigo llenar el tanque responderé al llamado si lo quiere mi suerte <--------Toda esta parte va con Fill 3 x2 como otras veces antes sindo quien siente F#m F#m/E D F#m/C# Bm A C#m7

roll up this ad to continue

share this page

See Also: