E-Chords
Almafuerte

Amistad De Tierra Adentro(Chords)

Almafuerte

Key: F#5
Titulo: Amistades de tierra adentro 
Album: Del Entorno (1996) 
NOTA: La introducción está incompleta. 

INTRO: 
e-|---|------------|-------------|- 
B-|---|------------|-------------|- 
G-|---|------------|-------------|- 
D-|---|------------|-5---5-4-2---|- 
A-|-6-|------------|-3---3-2-0-4-|- 
E-|-4-|------------|-----------2-|-
F#5 Amistades de tierra adentro, que forjaron mis pasos. Aqui o allá, yendo o viniendo. Los estoy recordando. G#5 Amigazos que me arrimó el destino, para ustedes lo canto. B5 Cantarlo he querido, pues no he de olvidar. El sentirlos mi gente. G5 D5 Los imagino sonreír al escuchar A5 esta canción, que cantando estoy. G5 D5 A5 Quiera el destino de nuestra nación, E5 reencontrarnos.
e-|-------|-------|- 
B-|-------|-------|- 
G-|-------|-------|- 
D-|-9-8-7-|-7-6-5-|- 
A-|-7-6-5-|-5-4-3-|- 
E-|-------|-------|-
Grata amistad, en tierra adentro. Metaleros pesados. Que aguantan más, porque son menos. De fierro son mis hermanos. Argentino es mi encarne, y aunque pese. Soy un perro cristiano. De arrebato esta frecuencia se borró. Y echó parte de nadie. Los imagino sonreír al escuchar esta canción, que cantando estoy. Quiera el destino de nuestra nación, reencontrarnos. Por favor.

roll up this ad to continue

share this page

See Also: